ISO-10303-21;
HEADER;
FILE_DESCRIPTION ((), '1');
FILE_NAME ('\\\\so-file-01\\Profiles\\halbhuber\\Desktop\\S1ADX0330_328.STP', '2019-09-20T08:45:26', ('Unknown'), ('Unknown'), 'HarmonyWare STEP v2.0.6', 'HarmonyWare Translators', '');
FILE_SCHEMA (('CONFIG_CONTROL_DESIGN'));
ENDSEC;

DATA;
#1 = CARTESIAN_POINT ('', (15., 0., 0.723538148560021));
#2 = VERTEX_POINT ('', #1);
#3 = CARTESIAN_POINT ('', (9.18485099360515E-16, 15., 0.723538148560021));
#4 = VERTEX_POINT ('', #3);
#5 = CARTESIAN_POINT ('', (15., 0., 0.723538148560021));
#6 = CARTESIAN_POINT ('', (15., 15., 0.723538148560021));
#7 = CARTESIAN_POINT ('', (9.18485099360515E-16, 15., 0.723538148560021));
#8 = (
   BOUNDED_CURVE ()
   B_SPLINE_CURVE (2, (#5, #6, #7), .UNSPECIFIED., .F., .U.)
   B_SPLINE_CURVE_WITH_KNOTS ((3, 3), (0., 1.5707963267949), .UNSPECIFIED.)
   CURVE ()
   GEOMETRIC_REPRESENTATION_ITEM ()
   RATIONAL_B_SPLINE_CURVE ((1., 0.707106781186548, 1.))
   REPRESENTATION_ITEM ('')
);
#9 = EDGE_CURVE ('', #2, #4, #8, .T.);
#10 = ORIENTED_EDGE ('', *, *, #9, .T.);
#11 = CARTESIAN_POINT ('', (-15., 1.83697019872103E-15, 0.723538148560021));
#12 = VERTEX_POINT ('', #11);
#13 = CARTESIAN_POINT ('', (9.18485099360515E-16, 15., 0.723538148560021));
#14 = CARTESIAN_POINT ('', (-15., 15., 0.723538148560021));
#15 = CARTESIAN_POINT ('', (-15., 1.83697019872103E-15, 0.723538148560021));
#16 = (
   BOUNDED_CURVE ()
   B_SPLINE_CURVE (2, (#13, #14, #15), .UNSPECIFIED., .F., .U.)
   B_SPLINE_CURVE_WITH_KNOTS ((3, 3), (1.5707963267949, 3.14159265358979), .UNSPECIFIED.)
   CURVE ()
   GEOMETRIC_REPRESENTATION_ITEM ()
   RATIONAL_B_SPLINE_CURVE ((1., 0.707106781186548, 1.))
   REPRESENTATION_ITEM ('')
);
#17 = EDGE_CURVE ('', #4, #12, #16, .T.);
#18 = ORIENTED_EDGE ('', *, *, #17, .T.);
#19 = CARTESIAN_POINT ('', (-15., 1.83697019872103E-15, 8.88712475328307));
#20 = VERTEX_POINT ('', #19);
#21 = CARTESIAN_POINT ('', (-15., 1.83697019872103E-15, 0.723538148560021));
#22 = CARTESIAN_POINT ('', (-15., 1.83697019872103E-15, 8.88712475328307));
#23 = B_SPLINE_CURVE_WITH_KNOTS ('', 1, (#21, #22), .UNSPECIFIED., .F., .U., (2, 2), (0., 1.), .UNSPECIFIED.);
#24 = EDGE_CURVE ('', #12, #20, #23, .T.);
#25 = ORIENTED_EDGE ('', *, *, #24, .T.);
#26 = CARTESIAN_POINT ('', (15., 0., 8.88712475328307));
#27 = VERTEX_POINT ('', #26);
#28 = CARTESIAN_POINT ('', (15., 0., 8.88712475328307));
#29 = CARTESIAN_POINT ('', (15., 15., 8.88712475328307));
#30 = CARTESIAN_POINT ('', (9.18485099360515E-16, 15., 8.88712475328307));
#31 = CARTESIAN_POINT ('', (-15., 15., 8.88712475328307));
#32 = CARTESIAN_POINT ('', (-15., 1.83697019872103E-15, 8.88712475328307));
#33 = (
   BOUNDED_CURVE ()
   B_SPLINE_CURVE (2, (#28, #29, #30, #31, #32), .UNSPECIFIED., .F., .U.)
   B_SPLINE_CURVE_WITH_KNOTS ((3, 2, 3), (0., 1.5707963267949, 3.14159265358979), .UNSPECIFIED.)
   CURVE ()
   GEOMETRIC_REPRESENTATION_ITEM ()
   RATIONAL_B_SPLINE_CURVE ((1., 0.707106781186548, 1., 0.707106781186548, 1.))
   REPRESENTATION_ITEM ('')
);
#34 = EDGE_CURVE ('', #27, #20, #33, .T.);
#35 = ORIENTED_EDGE ('', *, *, #34, .F.);
#36 = CARTESIAN_POINT ('', (15., 0., 0.723538148560021));
#37 = CARTESIAN_POINT ('', (15., 0., 8.88712475328307));
#38 = B_SPLINE_CURVE_WITH_KNOTS ('', 1, (#36, #37), .UNSPECIFIED., .F., .U., (2, 2), (0., 1.), .UNSPECIFIED.);
#39 = EDGE_CURVE ('', #2, #27, #38, .T.);
#40 = ORIENTED_EDGE ('', *, *, #39, .F.);
#41 = EDGE_LOOP ('', (#10, #18, #25, #35, #40));
#42 = FACE_OUTER_BOUND ('', #41, .T.);
#43 = CARTESIAN_POINT ('', (0., -4.44089209850063E-15, 0.723538148560021));
#44 = DIRECTION ('', (7.40148683083438E-18, -1.91072034820862E-31, 1.));
#45 = DIRECTION ('', (1., 2.96059473233375E-16, -7.40148683083438E-18));
#46 = AXIS2_PLACEMENT_3D ('', #43, #44, #45);
#47 = CYLINDRICAL_SURFACE ('', #46, 15.);
#48 = ADVANCED_FACE ('', (#42), #47, .T.);
#49 = CARTESIAN_POINT ('', (-15., 1.83697019872103E-15, 0.723538148560021));
#50 = CARTESIAN_POINT ('', (-15., -15., 0.723538148560021));
#51 = CARTESIAN_POINT ('', (-2.75545529808154E-15, -15., 0.723538148560021));
#52 = CARTESIAN_POINT ('', (15., -15., 0.723538148560021));
#53 = CARTESIAN_POINT ('', (15., -3.67394039744206E-15, 0.723538148560021));
#54 = (
   BOUNDED_CURVE ()
   B_SPLINE_CURVE (2, (#49, #50, #51, #52, #53), .UNSPECIFIED., .F., .U.)
   B_SPLINE_CURVE_WITH_KNOTS ((3, 2, 3), (3.14159265358979, 4.71238898038469, 6.28318530717959), .UNSPECIFIED.)
   CURVE ()
   GEOMETRIC_REPRESENTATION_ITEM ()
   RATIONAL_B_SPLINE_CURVE ((1., 0.707106781186548, 1., 0.707106781186548, 1.))
   REPRESENTATION_ITEM ('')
);
#55 = EDGE_CURVE ('', #12, #2, #54, .T.);
#56 = ORIENTED_EDGE ('', *, *, #55, .T.);
#57 = ORIENTED_EDGE ('', *, *, #39, .T.);
#58 = CARTESIAN_POINT ('', (-15., 1.83697019872103E-15, 8.88712475328307));
#59 = CARTESIAN_POINT ('', (-15., -15., 8.88712475328307));
#60 = CARTESIAN_POINT ('', (-2.75545529808154E-15, -15., 8.88712475328307));
#61 = CARTESIAN_POINT ('', (15., -15., 8.88712475328307));
#62 = CARTESIAN_POINT ('', (15., -3.67394039744206E-15, 8.88712475328307));
#63 = (
   BOUNDED_CURVE ()
   B_SPLINE_CURVE (2, (#58, #59, #60, #61, #62), .UNSPECIFIED., .F., .U.)
   B_SPLINE_CURVE_WITH_KNOTS ((3, 2, 3), (3.14159265358979, 4.71238898038469, 6.28318530717959), .UNSPECIFIED.)
   CURVE ()
   GEOMETRIC_REPRESENTATION_ITEM ()
   RATIONAL_B_SPLINE_CURVE ((1., 0.707106781186548, 1., 0.707106781186548, 1.))
   REPRESENTATION_ITEM ('')
);
#64 = EDGE_CURVE ('', #20, #27, #63, .T.);
#65 = ORIENTED_EDGE ('', *, *, #64, .F.);
#66 = ORIENTED_EDGE ('', *, *, #24, .F.);
#67 = EDGE_LOOP ('', (#56, #57, #65, #66));
#68 = FACE_OUTER_BOUND ('', #67, .T.);
#69 = CARTESIAN_POINT ('', (0., 3.5527136788005E-15, 0.723538148560021));
#70 = DIRECTION ('', (-7.40148683083436E-18, -1.08797574240992E-16, 1.));
#71 = DIRECTION ('', (-1., -1.14382898671965E-16, -7.40148683083438E-18));
#72 = AXIS2_PLACEMENT_3D ('', #69, #70, #71);
#73 = CYLINDRICAL_SURFACE ('', #72, 15.);
#74 = ADVANCED_FACE ('', (#68), #73, .T.);
#75 = CARTESIAN_POINT ('', (0., 0., 0.));
#76 = VERTEX_POINT ('', #75);
#77 = CARTESIAN_POINT ('', (0., 0., 0.));
#78 = CARTESIAN_POINT ('', (0., 2.76172206913542, 0.));
#79 = CARTESIAN_POINT ('', (1.57772181044202E-30, 7.7694690334844, 0.133488563865664));
#80 = CARTESIAN_POINT ('', (0., 12.7643671738827, 0.507753948546866));
#81 = CARTESIAN_POINT ('', (1.57772181044202E-30, 15., 0.723538148560025));
#82 = B_SPLINE_CURVE_WITH_KNOTS ('', 3, (#77, #78, #79, #80, #81), .UNSPECIFIED., .F., .U., (4, 1, 4), (0., 0.551490205877771, 1.), .UNSPECIFIED.);
#83 = EDGE_CURVE ('', #76, #4, #82, .T.);
#84 = ORIENTED_EDGE ('', *, *, #83, .T.);
#85 = ORIENTED_EDGE ('', *, *, #9, .F.);
#86 = ORIENTED_EDGE ('', *, *, #55, .F.);
#87 = ORIENTED_EDGE ('', *, *, #17, .F.);
#88 = ORIENTED_EDGE ('', *, *, #83, .F.);
#89 = EDGE_LOOP ('', (#84, #85, #86, #87, #88));
#90 = FACE_OUTER_BOUND ('', #89, .T.);
#91 = CARTESIAN_POINT ('', (1.57772181044202E-30, 15., 0.723538148560025));
#92 = CARTESIAN_POINT ('', (-15., 15., 0.723538148560025));
#93 = CARTESIAN_POINT ('', (-15., 1.3519516428856E-14, 0.723538148560025));
#94 = CARTESIAN_POINT ('', (-15., -15., 0.723538148560025));
#95 = CARTESIAN_POINT ('', (-2.3153252271524E-14, -15., 0.723538148560024));
#96 = CARTESIAN_POINT ('', (15., -15., 0.723538148560024));
#97 = CARTESIAN_POINT ('', (15., -1.1470706041389E-14, 0.723538148560024));
#98 = CARTESIAN_POINT ('', (15., 15., 0.723538148560024));
#99 = CARTESIAN_POINT ('', (1.57772181044202E-30, 15., 0.723538148560025));
#100 = CARTESIAN_POINT ('', (0., 12.7643671738827, 0.507753948546866));
#101 = CARTESIAN_POINT ('', (-12.7643671738827, 12.7643671738827, 0.507753948546866));
#102 = CARTESIAN_POINT ('', (-12.7643671738827, 1.33894164732418E-14, 0.507753948546866));
#103 = CARTESIAN_POINT ('', (-12.7643671738827, -12.7643671738827, 0.507753948546866));
#104 = CARTESIAN_POINT ('', (-2.28898581124662E-14, -12.7643671738827, 0.507753948546866));
#105 = CARTESIAN_POINT ('', (12.7643671738827, -12.7643671738827, 0.507753948546865));
#106 = CARTESIAN_POINT ('', (12.7643671738827, -1.10636257794881E-14, 0.507753948546865));
#107 = CARTESIAN_POINT ('', (12.7643671738827, 12.7643671738827, 0.507753948546865));
#108 = CARTESIAN_POINT ('', (0., 12.7643671738827, 0.507753948546866));
#109 = CARTESIAN_POINT ('', (1.57772181044202E-30, 7.7694690334844, 0.133488563865664));
#110 = CARTESIAN_POINT ('', (-7.76946903348439, 7.76946903348441, 0.133488563865664));
#111 = CARTESIAN_POINT ('', (-7.76946903348441, 1.30953493709038E-14, 0.133488563865664));
#112 = CARTESIAN_POINT ('', (-7.76946903348442, -7.76946903348438, 0.133488563865664));
#113 = CARTESIAN_POINT ('', (-2.22961836671582E-14, -7.76946903348439, 0.133488563865664));
#114 = CARTESIAN_POINT ('', (7.76946903348437, -7.7694690334844, 0.133488563865664));
#115 = CARTESIAN_POINT ('', (7.76946903348438, -1.01523198345475E-14, 0.133488563865664));
#116 = CARTESIAN_POINT ('', (7.7694690334844, 7.76946903348438, 0.133488563865664));
#117 = CARTESIAN_POINT ('', (1.57772181044202E-30, 7.7694690334844, 0.133488563865664));
#118 = CARTESIAN_POINT ('', (0., 2.76172206913542, 0.));
#119 = CARTESIAN_POINT ('', (-2.76172206913542, 2.76172206913543, 6.65005545127139E-17));
#120 = CARTESIAN_POINT ('', (-2.76172206913543, 1.27929156420336E-14, 6.65005545127139E-17));
#121 = CARTESIAN_POINT ('', (-2.76172206913544, -2.76172206913541, 6.65005545127139E-17));
#122 = CARTESIAN_POINT ('', (-2.16893401817228E-14, -2.76172206913542, 8.14396912255191E-33));
#123 = CARTESIAN_POINT ('', (2.7617220691354, -2.76172206913543, -6.65005545127139E-17));
#124 = CARTESIAN_POINT ('', (2.76172206913541, -9.23463794889935E-15, -6.65005545127139E-17));
#125 = CARTESIAN_POINT ('', (2.76172206913542, 2.76172206913541, -6.65005545127139E-17));
#126 = CARTESIAN_POINT ('', (0., 2.76172206913542, 0.));
#127 = CARTESIAN_POINT ('', (0., 0., 0.));
#128 = CARTESIAN_POINT ('', (0., 0., 0.));
#129 = CARTESIAN_POINT ('', (0., 0., 0.));
#130 = CARTESIAN_POINT ('', (0., 0., 0.));
#131 = CARTESIAN_POINT ('', (0., 0., 0.));
#132 = CARTESIAN_POINT ('', (0., 0., 0.));
#133 = CARTESIAN_POINT ('', (0., 0., 0.));
#134 = CARTESIAN_POINT ('', (0., 0., 0.));
#135 = CARTESIAN_POINT ('', (0., 0., 0.));
#136 = (
   BOUNDED_SURFACE ()
   B_SPLINE_SURFACE (3, 2, ((#91, #92, #93, #94, #95, #96, #97, #98, #99), (#100, #101, #102, #103, #104, #105, #106, #107, #108), (#109, #110, #111, #112, #113, #114, #115, #116, #117), (#118, #119, #120, #121, #122, #123, #124, #125, #126), (#127, #128, #129, #130, #131, #132, #133, #134, #135)), .UNSPECIFIED., .F., .T., .U.)
   B_SPLINE_SURFACE_WITH_KNOTS ((4, 1, 4), (3, 2, 2, 2, 3), (0., 0.448509794122229, 1.), (0., 90., 180., 270., 360.), .UNSPECIFIED.)
   SURFACE ()
   GEOMETRIC_REPRESENTATION_ITEM ()
   RATIONAL_B_SPLINE_SURFACE (((1., 0.707106781186548, 1., 0.707106781186548, 1., 0.707106781186548, 1., 0.707106781186548, 1.), (1., 0.707106781186548, 1., 0.707106781186548, 1., 0.707106781186548, 1., 0.707106781186548, 1.), (1., 0.707106781186548, 1., 0.707106781186548, 1., 0.707106781186548, 1., 0.707106781186548, 1.), (1., 0.707106781186548, 1., 0.707106781186548, 1., 0.707106781186548, 1., 0.707106781186548, 1.), (1., 0.707106781186548, 1., 0.707106781186548, 1., 0.707106781186548, 1., 0.707106781186548, 1.)))
   REPRESENTATION_ITEM ('')
);
#137 = ADVANCED_FACE ('', (#90), #136, .T.);
#138 = ORIENTED_EDGE ('', *, *, #34, .T.);
#139 = ORIENTED_EDGE ('', *, *, #64, .T.);
#140 = EDGE_LOOP ('', (#138, #139));
#141 = FACE_OUTER_BOUND ('', #140, .T.);
#142 = CARTESIAN_POINT ('', (3.41060513164848E-13, -5.6843418860808E-14, -987.732));
#143 = DIRECTION ('', (-1., -2.33230806177244E-16, 4.37278070705461E-16));
#144 = DIRECTION ('', (2.33230806177244E-16, -1., 4.66461612354488E-16));
#145 = AXIS2_PLACEMENT_3D ('', #142, #143, #144);
#146 = SPHERICAL_SURFACE ('', #145, 996.732);
#147 = ADVANCED_FACE ('', (#141), #146, .T.);
#148 = CLOSED_SHELL ('', (#48, #74, #137, #147));
#149 = MANIFOLD_SOLID_BREP ('', #148);
#150 = PRESENTATION_LAYER_ASSIGNMENT ('Level 0', 'Level 0', (#149));
#151 = (
   LENGTH_UNIT ()
   NAMED_UNIT (*)
   SI_UNIT (.MILLI., .METRE.)
);
#152 = (
   NAMED_UNIT (*)
   SI_UNIT ($, .STERADIAN.)
   SOLID_ANGLE_UNIT ()
);
#153 = (
   NAMED_UNIT (*)
   SI_UNIT ($, .RADIAN.)
   PLANE_ANGLE_UNIT ()
);
#154 = UNCERTAINTY_MEASURE_WITH_UNIT (LENGTH_MEASURE(0.0001), #151, 'DISTANCE_ACCURACY_VALUE', '');
#155 = (
   GEOMETRIC_REPRESENTATION_CONTEXT (3)
   GLOBAL_UNCERTAINTY_ASSIGNED_CONTEXT ((#154))
   GLOBAL_UNIT_ASSIGNED_CONTEXT ((#151, #152, #153))
   REPRESENTATION_CONTEXT ('', '3D')
);
#156 = ADVANCED_BREP_SHAPE_REPRESENTATION ('', (#149), #155);
#157 = APPLICATION_CONTEXT ('configuration controlled 3D designs of mechanical parts and assemblies');
#158 = APPLICATION_PROTOCOL_DEFINITION ('International Standard', 'config_control_design', 1997, #157);
#159 = MECHANICAL_CONTEXT ('', #157, 'mechanical');
#160 = PRODUCT ('NONE', '', '', (#159));
#161 = PERSON_AND_ORGANIZATION_ROLE ('design_owner');
#162 = PERSON ('', '', $, $, $, $);
#163 = ORGANIZATION ($, '', '');
#164 = PERSON_AND_ORGANIZATION (#162, #163);
#165 = CC_DESIGN_PERSON_AND_ORGANIZATION_ASSIGNMENT (#164, #161, (#160));
#166 = PRODUCT_RELATED_PRODUCT_CATEGORY ('detail', $, (#160));
#167 = PRODUCT_DEFINITION_FORMATION_WITH_SPECIFIED_SOURCE ('', '', #160, .NOT_KNOWN.);
#168 = APPROVAL_STATUS ('approved');
#169 = APPROVAL (#168, '');
#170 = CALENDAR_DATE (2019, 20, 9);
#171 = COORDINATED_UNIVERSAL_TIME_OFFSET (0, $, .AHEAD.);
#172 = LOCAL_TIME (8, 45, 26., #171);
#173 = DATE_AND_TIME (#170, #172);
#174 = APPROVAL_DATE_TIME (#173, #169);
#175 = APPROVAL_ROLE ('');
#176 = PERSON ('', '', $, $, $, $);
#177 = ORGANIZATION ($, '', '');
#178 = PERSON_AND_ORGANIZATION (#176, #177);
#179 = APPROVAL_PERSON_ORGANIZATION (#178, #169, #175);
#180 = CC_DESIGN_APPROVAL (#169, (#167));
#181 = PERSON_AND_ORGANIZATION_ROLE ('creator');
#182 = PERSON ('', '', $, $, $, $);
#183 = ORGANIZATION ($, '', '');
#184 = PERSON_AND_ORGANIZATION (#182, #183);
#185 = CC_DESIGN_PERSON_AND_ORGANIZATION_ASSIGNMENT (#184, #181, (#167));
#186 = PERSON_AND_ORGANIZATION_ROLE ('part_supplier');
#187 = PERSON ('', '', $, $, $, $);
#188 = ORGANIZATION ($, '', '');
#189 = PERSON_AND_ORGANIZATION (#187, #188);
#190 = CC_DESIGN_PERSON_AND_ORGANIZATION_ASSIGNMENT (#189, #186, (#167));
#191 = SECURITY_CLASSIFICATION_LEVEL ('unclassified');
#192 = SECURITY_CLASSIFICATION ('', '', #191);
#193 = APPROVAL_STATUS ('approved');
#194 = APPROVAL (#193, '');
#195 = CALENDAR_DATE (2019, 20, 9);
#196 = COORDINATED_UNIVERSAL_TIME_OFFSET (0, $, .AHEAD.);
#197 = LOCAL_TIME (8, 45, 26., #196);
#198 = DATE_AND_TIME (#195, #197);
#199 = APPROVAL_DATE_TIME (#198, #194);
#200 = APPROVAL_ROLE ('');
#201 = PERSON ('', '', $, $, $, $);
#202 = ORGANIZATION ($, '', '');
#203 = PERSON_AND_ORGANIZATION (#201, #202);
#204 = APPROVAL_PERSON_ORGANIZATION (#203, #194, #200);
#205 = CC_DESIGN_APPROVAL (#194, (#192));
#206 = DATE_TIME_ROLE ('classification_date');
#207 = CALENDAR_DATE (2019, 20, 9);
#208 = COORDINATED_UNIVERSAL_TIME_OFFSET (0, $, .AHEAD.);
#209 = LOCAL_TIME (8, 45, 26., #208);
#210 = DATE_AND_TIME (#207, #209);
#211 = CC_DESIGN_DATE_AND_TIME_ASSIGNMENT (#210, #206, (#192));
#212 = PERSON_AND_ORGANIZATION_ROLE ('classification_officer');
#213 = PERSON ('', '', $, $, $, $);
#214 = ORGANIZATION ($, '', '');
#215 = PERSON_AND_ORGANIZATION (#213, #214);
#216 = CC_DESIGN_PERSON_AND_ORGANIZATION_ASSIGNMENT (#215, #212, (#192));
#217 = CC_DESIGN_SECURITY_CLASSIFICATION (#192, (#167));
#218 = DESIGN_CONTEXT ('', #157, 'design');
#219 = PRODUCT_DEFINITION ('', '', #167, #218);
#220 = APPROVAL_STATUS ('approved');
#221 = APPROVAL (#220, '');
#222 = CALENDAR_DATE (2019, 20, 9);
#223 = COORDINATED_UNIVERSAL_TIME_OFFSET (0, $, .AHEAD.);
#224 = LOCAL_TIME (8, 45, 26., #223);
#225 = DATE_AND_TIME (#222, #224);
#226 = APPROVAL_DATE_TIME (#225, #221);
#227 = APPROVAL_ROLE ('');
#228 = PERSON ('', '', $, $, $, $);
#229 = ORGANIZATION ($, '', '');
#230 = PERSON_AND_ORGANIZATION (#228, #229);
#231 = APPROVAL_PERSON_ORGANIZATION (#230, #221, #227);
#232 = CC_DESIGN_APPROVAL (#221, (#219));
#233 = DATE_TIME_ROLE ('creation_date');
#234 = CALENDAR_DATE (2019, 20, 9);
#235 = COORDINATED_UNIVERSAL_TIME_OFFSET (0, $, .AHEAD.);
#236 = LOCAL_TIME (8, 45, 26., #235);
#237 = DATE_AND_TIME (#234, #236);
#238 = CC_DESIGN_DATE_AND_TIME_ASSIGNMENT (#237, #233, (#219));
#239 = PERSON_AND_ORGANIZATION_ROLE ('creator');
#240 = PERSON ('', '', $, $, $, $);
#241 = ORGANIZATION ($, '', '');
#242 = PERSON_AND_ORGANIZATION (#240, #241);
#243 = CC_DESIGN_PERSON_AND_ORGANIZATION_ASSIGNMENT (#242, #239, (#219));
#244 = PRODUCT_DEFINITION_SHAPE ('', '', #219);
#245 = SHAPE_DEFINITION_REPRESENTATION (#244, #156);
ENDSEC;
END-ISO-10303-21;
