ISO-10303-21;
HEADER;
FILE_DESCRIPTION ((), '1');
FILE_NAME ('T:\\CAD\\AsphXren\\S1ADX0320.STP', '2013-04-26T15:07:34', ('Unknown'), ('Unknown'), 'HarmonyWare STEP v1.5.0', 'HarmonyWare Translators', '');
FILE_SCHEMA (('CONFIG_CONTROL_DESIGN'));
ENDSEC;

DATA;
#10 = CARTESIAN_POINT ('', (19.05, 0., 1.71425396373355));
#20 = VERTEX_POINT ('', #10);
#30 = CARTESIAN_POINT ('', (1.16647607618785E-15, 19.05, 1.71425396373355));
#40 = VERTEX_POINT ('', #30);
#50 = CARTESIAN_POINT ('', (19.05, 0., 1.71425396373355));
#60 = CARTESIAN_POINT ('', (19.05, 19.05, 1.71425396373355));
#70 = CARTESIAN_POINT ('', (1.16647607618785E-15, 19.05, 1.71425396373355));
#80 = (
   BOUNDED_CURVE ()
   B_SPLINE_CURVE (2, (#50, #60, #70), .UNSPECIFIED., .F., .U.)
   B_SPLINE_CURVE_WITH_KNOTS ((3, 3), (0., 1.5707963267949), .UNSPECIFIED.)
   CURVE ()
   GEOMETRIC_REPRESENTATION_ITEM ()
   RATIONAL_B_SPLINE_CURVE ((1., 0.707106781186548, 1.))
   REPRESENTATION_ITEM ('')
);
#90 = EDGE_CURVE ('', #20, #40, #80, .T.);
#100 = ORIENTED_EDGE ('', *, *, #90, .T.);
#110 = CARTESIAN_POINT ('', (-19.05, 2.33295215237571E-15, 1.71425396373355));
#120 = VERTEX_POINT ('', #110);
#130 = CARTESIAN_POINT ('', (1.16647607618785E-15, 19.05, 1.71425396373355));
#140 = CARTESIAN_POINT ('', (-19.05, 19.05, 1.71425396373355));
#150 = CARTESIAN_POINT ('', (-19.05, 2.33295215237571E-15, 1.71425396373355));
#160 = (
   BOUNDED_CURVE ()
   B_SPLINE_CURVE (2, (#130, #140, #150), .UNSPECIFIED., .F., .U.)
   B_SPLINE_CURVE_WITH_KNOTS ((3, 3), (1.5707963267949, 3.14159265358979), .UNSPECIFIED.)
   CURVE ()
   GEOMETRIC_REPRESENTATION_ITEM ()
   RATIONAL_B_SPLINE_CURVE ((1., 0.707106781186548, 1.))
   REPRESENTATION_ITEM ('')
);
#170 = EDGE_CURVE ('', #40, #120, #160, .T.);
#180 = ORIENTED_EDGE ('', *, *, #170, .T.);
#190 = CARTESIAN_POINT ('', (-19.05, 2.33295215237571E-15, 8.58578400472802));
#200 = VERTEX_POINT ('', #190);
#210 = CARTESIAN_POINT ('', (-19.05, 2.33295215237571E-15, 1.71425396373355));
#220 = CARTESIAN_POINT ('', (-19.05, 2.33295215237571E-15, 8.58578400472802));
#230 = B_SPLINE_CURVE_WITH_KNOTS ('', 1, (#210, #220), .UNSPECIFIED., .F., .U., (2, 2), (0., 1.), .UNSPECIFIED.);
#240 = EDGE_CURVE ('', #120, #200, #230, .T.);
#250 = ORIENTED_EDGE ('', *, *, #240, .T.);
#260 = CARTESIAN_POINT ('', (19.05, 0., 8.58578400472802));
#270 = VERTEX_POINT ('', #260);
#280 = CARTESIAN_POINT ('', (19.05, 0., 8.58578400472802));
#290 = CARTESIAN_POINT ('', (19.05, 19.05, 8.58578400472802));
#300 = CARTESIAN_POINT ('', (1.16647607618785E-15, 19.05, 8.58578400472802));
#310 = CARTESIAN_POINT ('', (-19.05, 19.05, 8.58578400472802));
#320 = CARTESIAN_POINT ('', (-19.05, 2.33295215237571E-15, 8.58578400472802));
#330 = (
   BOUNDED_CURVE ()
   B_SPLINE_CURVE (2, (#280, #290, #300, #310, #320), .UNSPECIFIED., .F., .U.)
   B_SPLINE_CURVE_WITH_KNOTS ((3, 2, 3), (0., 1.5707963267949, 3.14159265358979), .UNSPECIFIED.)
   CURVE ()
   GEOMETRIC_REPRESENTATION_ITEM ()
   RATIONAL_B_SPLINE_CURVE ((1., 0.707106781186548, 1., 0.707106781186548, 1.))
   REPRESENTATION_ITEM ('')
);
#340 = EDGE_CURVE ('', #270, #200, #330, .T.);
#350 = ORIENTED_EDGE ('', *, *, #340, .F.);
#360 = CARTESIAN_POINT ('', (19.05, 0., 1.71425396373355));
#370 = CARTESIAN_POINT ('', (19.05, 0., 8.58578400472802));
#380 = B_SPLINE_CURVE_WITH_KNOTS ('', 1, (#360, #370), .UNSPECIFIED., .F., .U., (2, 2), (0., 1.), .UNSPECIFIED.);
#390 = EDGE_CURVE ('', #20, #270, #380, .T.);
#400 = ORIENTED_EDGE ('', *, *, #390, .F.);
#410 = EDGE_LOOP ('', (#100, #180, #250, #350, #400));
#420 = FACE_OUTER_BOUND ('', #410, .T.);
#430 = CARTESIAN_POINT ('', (-1.77635683940025E-15, 1.77635683940025E-15, 1.71425396373355));
#440 = DIRECTION ('', (0., 0., 1.));
#450 = DIRECTION ('', (1., -9.32470781837402E-17, 0.));
#460 = AXIS2_PLACEMENT_3D ('', #430, #440, #450);
#470 = CYLINDRICAL_SURFACE ('', #460, 19.05);
#480 = ADVANCED_FACE ('', (#420), #470, .T.);
#490 = CARTESIAN_POINT ('', (-19.05, 2.33295215237571E-15, 1.71425396373355));
#500 = CARTESIAN_POINT ('', (-19.05, -19.05, 1.71425396373355));
#510 = CARTESIAN_POINT ('', (-3.49942822856356E-15, -19.05, 1.71425396373355));
#520 = CARTESIAN_POINT ('', (19.05, -19.05, 1.71425396373355));
#530 = CARTESIAN_POINT ('', (19.05, -4.66590430475142E-15, 1.71425396373355));
#540 = (
   BOUNDED_CURVE ()
   B_SPLINE_CURVE (2, (#490, #500, #510, #520, #530), .UNSPECIFIED., .F., .U.)
   B_SPLINE_CURVE_WITH_KNOTS ((3, 2, 3), (3.14159265358979, 4.71238898038469, 6.28318530717959), .UNSPECIFIED.)
   CURVE ()
   GEOMETRIC_REPRESENTATION_ITEM ()
   RATIONAL_B_SPLINE_CURVE ((1., 0.707106781186548, 1., 0.707106781186548, 1.))
   REPRESENTATION_ITEM ('')
);
#550 = EDGE_CURVE ('', #120, #20, #540, .T.);
#560 = ORIENTED_EDGE ('', *, *, #550, .T.);
#570 = ORIENTED_EDGE ('', *, *, #390, .T.);
#580 = CARTESIAN_POINT ('', (-19.05, 2.33295215237571E-15, 8.58578400472802));
#590 = CARTESIAN_POINT ('', (-19.05, -19.05, 8.58578400472802));
#600 = CARTESIAN_POINT ('', (-3.49942822856356E-15, -19.05, 8.58578400472802));
#610 = CARTESIAN_POINT ('', (19.05, -19.05, 8.58578400472802));
#620 = CARTESIAN_POINT ('', (19.05, -4.66590430475142E-15, 8.58578400472802));
#630 = (
   BOUNDED_CURVE ()
   B_SPLINE_CURVE (2, (#580, #590, #600, #610, #620), .UNSPECIFIED., .F., .U.)
   B_SPLINE_CURVE_WITH_KNOTS ((3, 2, 3), (3.14159265358979, 4.71238898038469, 6.28318530717959), .UNSPECIFIED.)
   CURVE ()
   GEOMETRIC_REPRESENTATION_ITEM ()
   RATIONAL_B_SPLINE_CURVE ((1., 0.707106781186548, 1., 0.707106781186548, 1.))
   REPRESENTATION_ITEM ('')
);
#640 = EDGE_CURVE ('', #200, #270, #630, .T.);
#650 = ORIENTED_EDGE ('', *, *, #640, .F.);
#660 = ORIENTED_EDGE ('', *, *, #240, .F.);
#670 = EDGE_LOOP ('', (#560, #570, #650, #660));
#680 = FACE_OUTER_BOUND ('', #670, .T.);
#690 = CARTESIAN_POINT ('', (0., -1.77635683940025E-15, 1.71425396373355));
#700 = DIRECTION ('', (0., 0., 1.));
#710 = DIRECTION ('', (-1., 2.15711758098476E-16, 0.));
#720 = AXIS2_PLACEMENT_3D ('', #690, #700, #710);
#730 = CYLINDRICAL_SURFACE ('', #720, 19.05);
#740 = ADVANCED_FACE ('', (#680), #730, .T.);
#750 = CARTESIAN_POINT ('', (0., 0., 0.));
#760 = VERTEX_POINT ('', #750);
#770 = CARTESIAN_POINT ('', (0., 0., 0.));
#780 = CARTESIAN_POINT ('', (0., 2.51566663338626, 0.));
#790 = CARTESIAN_POINT ('', (0., 6.62591348950005, 0.146594349359787));
#800 = CARTESIAN_POINT ('', (0., 12.9837475573751, 0.742683882770925));
#810 = CARTESIAN_POINT ('', (0., 16.8121823418126, 1.31092739924571));
#820 = CARTESIAN_POINT ('', (0., 19.05, 1.71425396373354));
#830 = (
   BOUNDED_CURVE ()
   B_SPLINE_CURVE (3, (#770, #780, #790, #800, #810, #820), .UNSPECIFIED., .F., .U.)
   B_SPLINE_CURVE_WITH_KNOTS ((4, 1, 1, 4), (0., 0.39405024947582, 0.643823881791113, 1.), .UNSPECIFIED.)
   CURVE ()
   GEOMETRIC_REPRESENTATION_ITEM ()
   RATIONAL_B_SPLINE_CURVE ((1., 1., 1., 1., 1., 1.))
   REPRESENTATION_ITEM ('')
);
#840 = EDGE_CURVE ('', #760, #40, #830, .T.);
#850 = ORIENTED_EDGE ('', *, *, #840, .T.);
#860 = ORIENTED_EDGE ('', *, *, #90, .F.);
#870 = ORIENTED_EDGE ('', *, *, #550, .F.);
#880 = ORIENTED_EDGE ('', *, *, #170, .F.);
#890 = ORIENTED_EDGE ('', *, *, #840, .F.);
#900 = EDGE_LOOP ('', (#850, #860, #870, #880, #890));
#910 = FACE_OUTER_BOUND ('', #900, .T.);
#920 = CARTESIAN_POINT ('', (0., 19.05, 1.71425396373354));
#930 = CARTESIAN_POINT ('', (-19.05, 19.05, 1.71425396373354));
#940 = CARTESIAN_POINT ('', (-19.05, 1.16647607618785E-15, 1.71425396373354));
#950 = CARTESIAN_POINT ('', (-19.05, -19.05, 1.71425396373354));
#960 = CARTESIAN_POINT ('', (-2.33295215237571E-15, -19.05, 1.71425396373354));
#970 = CARTESIAN_POINT ('', (19.05, -19.05, 1.71425396373354));
#980 = CARTESIAN_POINT ('', (19.05, -3.49942822856356E-15, 1.71425396373354));
#990 = CARTESIAN_POINT ('', (19.05, 19.05, 1.71425396373354));
#1000 = CARTESIAN_POINT ('', (0., 19.05, 1.71425396373354));
#1010 = CARTESIAN_POINT ('', (0., 16.8121823418126, 1.31092739924571));
#1020 = CARTESIAN_POINT ('', (-16.8121823418126, 16.8121823418126, 1.31092739924571));
#1030 = CARTESIAN_POINT ('', (-16.8121823418126, 1.02944926457912E-15, 1.31092739924571));
#1040 = CARTESIAN_POINT ('', (-16.8121823418126, -16.8121823418126, 1.31092739924571));
#1050 = CARTESIAN_POINT ('', (-2.05889852915825E-15, -16.8121823418126, 1.31092739924571));
#1060 = CARTESIAN_POINT ('', (16.8121823418126, -16.8121823418126, 1.31092739924571));
#1070 = CARTESIAN_POINT ('', (16.8121823418126, -3.08834779373737E-15, 1.31092739924571));
#1080 = CARTESIAN_POINT ('', (16.8121823418126, 16.8121823418126, 1.31092739924571));
#1090 = CARTESIAN_POINT ('', (0., 16.8121823418126, 1.31092739924571));
#1100 = CARTESIAN_POINT ('', (0., 12.9837475573751, 0.742683882770925));
#1110 = CARTESIAN_POINT ('', (-12.9837475573751, 12.9837475573751, 0.742683882770925));
#1120 = CARTESIAN_POINT ('', (-12.9837475573751, 7.95025244353834E-16, 0.742683882770925));
#1130 = CARTESIAN_POINT ('', (-12.9837475573751, -12.9837475573751, 0.742683882770925));
#1140 = CARTESIAN_POINT ('', (-1.59005048870767E-15, -12.9837475573751, 0.742683882770925));
#1150 = CARTESIAN_POINT ('', (12.9837475573751, -12.9837475573751, 0.742683882770925));
#1160 = CARTESIAN_POINT ('', (12.9837475573751, -2.3850757330615E-15, 0.742683882770925));
#1170 = CARTESIAN_POINT ('', (12.9837475573751, 12.9837475573751, 0.742683882770925));
#1180 = CARTESIAN_POINT ('', (0., 12.9837475573751, 0.742683882770925));
#1190 = CARTESIAN_POINT ('', (0., 6.62591348950005, 0.146594349359787));
#1200 = CARTESIAN_POINT ('', (-6.62591348950005, 6.62591348950005, 0.146594349359787));
#1210 = CARTESIAN_POINT ('', (-6.62591348950005, 4.05720187317175E-16, 0.146594349359787));
#1220 = CARTESIAN_POINT ('', (-6.62591348950005, -6.62591348950005, 0.146594349359787));
#1230 = CARTESIAN_POINT ('', (-8.11440374634351E-16, -6.62591348950005, 0.146594349359787));
#1240 = CARTESIAN_POINT ('', (6.62591348950005, -6.62591348950005, 0.146594349359787));
#1250 = CARTESIAN_POINT ('', (6.62591348950005, -1.21716056195153E-15, 0.146594349359787));
#1260 = CARTESIAN_POINT ('', (6.62591348950005, 6.62591348950005, 0.146594349359787));
#1270 = CARTESIAN_POINT ('', (0., 6.62591348950005, 0.146594349359787));
#1280 = CARTESIAN_POINT ('', (0., 2.51566663338626, 0.));
#1290 = CARTESIAN_POINT ('', (-2.51566663338626, 2.51566663338626, 0.));
#1300 = CARTESIAN_POINT ('', (-2.51566663338626, 1.54040154514914E-16, 0.));
#1310 = CARTESIAN_POINT ('', (-2.51566663338626, -2.51566663338626, 0.));
#1320 = CARTESIAN_POINT ('', (-3.08080309029829E-16, -2.51566663338626, 0.));
#1330 = CARTESIAN_POINT ('', (2.51566663338626, -2.51566663338626, 0.));
#1340 = CARTESIAN_POINT ('', (2.51566663338626, -4.62120463544743E-16, 0.));
#1350 = CARTESIAN_POINT ('', (2.51566663338626, 2.51566663338626, 0.));
#1360 = CARTESIAN_POINT ('', (0., 2.51566663338626, 0.));
#1370 = CARTESIAN_POINT ('', (0., 0., 0.));
#1380 = CARTESIAN_POINT ('', (0., 0., 0.));
#1390 = CARTESIAN_POINT ('', (0., 0., 0.));
#1400 = CARTESIAN_POINT ('', (0., 0., 0.));
#1410 = CARTESIAN_POINT ('', (0., 0., 0.));
#1420 = CARTESIAN_POINT ('', (0., 0., 0.));
#1430 = CARTESIAN_POINT ('', (0., 0., 0.));
#1440 = CARTESIAN_POINT ('', (0., 0., 0.));
#1450 = CARTESIAN_POINT ('', (0., 0., 0.));
#1460 = (
   BOUNDED_SURFACE ()
   B_SPLINE_SURFACE (3, 2, ((#920, #930, #940, #950, #960, #970, #980, #990, #1000), (#1010, #1020, #1030, #1040, #1050, #1060, #1070, #1080, #1090), (#1100, #1110, #1120, #1130, #1140, #1150, #1160, #1170, #1180), (#1190, #1200, #1210, #1220, #1230, #1240, #1250, #1260, #1270), (#1280, #1290, #1300, #1310, #1320, #1330, #1340, #1350, #1360), (#1370, #1380, #1390, #1400, #1410, #1420, #1430, #1440, #1450)), .UNSPECIFIED., .F., .T., .U.)
   B_SPLINE_SURFACE_WITH_KNOTS ((4, 1, 1, 4), (3, 2, 2, 2, 3), (0., 0.356176118208887, 0.60594975052418, 1.), (0., 90., 180., 270., 360.), .UNSPECIFIED.)
   SURFACE ()
   GEOMETRIC_REPRESENTATION_ITEM ()
   RATIONAL_B_SPLINE_SURFACE (((1., 0.707106781186548, 1., 0.707106781186548, 1., 0.707106781186548, 1., 0.707106781186548, 1.), (1., 0.707106781186548, 1., 0.707106781186548, 1., 0.707106781186548, 1., 0.707106781186548, 1.), (1., 0.707106781186548, 1., 0.707106781186548, 1., 0.707106781186548, 1., 0.707106781186548, 1.), (1., 0.707106781186548, 1., 0.707106781186548, 1., 0.707106781186548, 1., 0.707106781186548, 1.), (1., 0.707106781186548, 1., 0.707106781186548, 1., 0.707106781186548, 1., 0.707106781186548, 1.), (1., 0.707106781186548, 1., 0.707106781186548, 1., 0.707106781186548, 1., 0.707106781186548, 1.)))
   REPRESENTATION_ITEM ('')
);
#1470 = ADVANCED_FACE ('', (#910), #1460, .T.);
#1480 = ORIENTED_EDGE ('', *, *, #340, .T.);
#1490 = ORIENTED_EDGE ('', *, *, #640, .T.);
#1500 = EDGE_LOOP ('', (#1480, #1490));
#1510 = FACE_OUTER_BOUND ('', #1500, .T.);
#1520 = CARTESIAN_POINT ('', (-5.6843418860808E-14, -5.6843418860808E-14, -568.73009705709));
#1530 = DIRECTION ('', (-1., 2.01226190504128E-16, -1.73900381789796E-16));
#1540 = DIRECTION ('', (-2.01226190504129E-16, -1., 4.02452381008257E-16));
#1550 = AXIS2_PLACEMENT_3D ('', #1520, #1530, #1540);
#1560 = SPHERICAL_SURFACE ('', #1550, 577.63009705709);
#1570 = ADVANCED_FACE ('', (#1510), #1560, .T.);
#1580 = CLOSED_SHELL ('', (#480, #740, #1470, #1570));
#1590 = MANIFOLD_SOLID_BREP ('', #1580);
#1600 = (
   LENGTH_UNIT ()
   NAMED_UNIT (*)
   SI_UNIT (.MILLI., .METRE.)
);
#1610 = (
   NAMED_UNIT (*)
   SI_UNIT ($, .STERADIAN.)
   SOLID_ANGLE_UNIT ()
);
#1620 = (
   NAMED_UNIT (*)
   SI_UNIT ($, .RADIAN.)
   PLANE_ANGLE_UNIT ()
);
#1630 = UNCERTAINTY_MEASURE_WITH_UNIT (LENGTH_MEASURE(0.0001), #1600, 'DISTANCE_ACCURACY_VALUE', '');
#1640 = (
   GEOMETRIC_REPRESENTATION_CONTEXT (3)
   GLOBAL_UNCERTAINTY_ASSIGNED_CONTEXT ((#1630))
   GLOBAL_UNIT_ASSIGNED_CONTEXT ((#1600, #1610, #1620))
   REPRESENTATION_CONTEXT ('', '3D')
);
#1650 = ADVANCED_BREP_SHAPE_REPRESENTATION ('', (#1590), #1640);
#1660 = APPLICATION_CONTEXT ('configuration controlled 3D designs of mechanical parts and assemblies');
#1670 = APPLICATION_PROTOCOL_DEFINITION ('International Standard', 'config_control_design', 1997, #1660);
#1680 = MECHANICAL_CONTEXT ('', #1660, 'mechanical');
#1690 = PRODUCT ('product-name', '', '', (#1680));
#1700 = PERSON_AND_ORGANIZATION_ROLE ('design_owner');
#1710 = PERSON ('', '', $, $, $, $);
#1720 = ORGANIZATION ($, '', '');
#1730 = PERSON_AND_ORGANIZATION (#1710, #1720);
#1740 = CC_DESIGN_PERSON_AND_ORGANIZATION_ASSIGNMENT (#1730, #1700, (#1690));
#1750 = PRODUCT_RELATED_PRODUCT_CATEGORY ('detail', $, (#1690));
#1760 = PRODUCT_DEFINITION_FORMATION_WITH_SPECIFIED_SOURCE ('', '', #1690, .NOT_KNOWN.);
#1770 = APPROVAL_STATUS ('approved');
#1780 = APPROVAL (#1770, '');
#1790 = CALENDAR_DATE (2013, 26, 4);
#1800 = COORDINATED_UNIVERSAL_TIME_OFFSET (0, $, .AHEAD.);
#1810 = LOCAL_TIME (15, 7, 34., #1800);
#1820 = DATE_AND_TIME (#1790, #1810);
#1830 = APPROVAL_DATE_TIME (#1820, #1780);
#1840 = APPROVAL_ROLE ('');
#1850 = PERSON ('', '', $, $, $, $);
#1860 = ORGANIZATION ($, '', '');
#1870 = PERSON_AND_ORGANIZATION (#1850, #1860);
#1880 = APPROVAL_PERSON_ORGANIZATION (#1870, #1780, #1840);
#1890 = CC_DESIGN_APPROVAL (#1780, (#1760));
#1900 = PERSON_AND_ORGANIZATION_ROLE ('creator');
#1910 = PERSON ('', '', $, $, $, $);
#1920 = ORGANIZATION ($, '', '');
#1930 = PERSON_AND_ORGANIZATION (#1910, #1920);
#1940 = CC_DESIGN_PERSON_AND_ORGANIZATION_ASSIGNMENT (#1930, #1900, (#1760));
#1950 = PERSON_AND_ORGANIZATION_ROLE ('part_supplier');
#1960 = PERSON ('', '', $, $, $, $);
#1970 = ORGANIZATION ($, '', '');
#1980 = PERSON_AND_ORGANIZATION (#1960, #1970);
#1990 = CC_DESIGN_PERSON_AND_ORGANIZATION_ASSIGNMENT (#1980, #1950, (#1760));
#2000 = SECURITY_CLASSIFICATION_LEVEL ('unclassified');
#2010 = SECURITY_CLASSIFICATION ('', '', #2000);
#2020 = APPROVAL_STATUS ('approved');
#2030 = APPROVAL (#2020, '');
#2040 = CALENDAR_DATE (2013, 26, 4);
#2050 = COORDINATED_UNIVERSAL_TIME_OFFSET (0, $, .AHEAD.);
#2060 = LOCAL_TIME (15, 7, 34., #2050);
#2070 = DATE_AND_TIME (#2040, #2060);
#2080 = APPROVAL_DATE_TIME (#2070, #2030);
#2090 = APPROVAL_ROLE ('');
#2100 = PERSON ('', '', $, $, $, $);
#2110 = ORGANIZATION ($, '', '');
#2120 = PERSON_AND_ORGANIZATION (#2100, #2110);
#2130 = APPROVAL_PERSON_ORGANIZATION (#2120, #2030, #2090);
#2140 = CC_DESIGN_APPROVAL (#2030, (#2010));
#2150 = DATE_TIME_ROLE ('classification_date');
#2160 = CALENDAR_DATE (2013, 26, 4);
#2170 = COORDINATED_UNIVERSAL_TIME_OFFSET (0, $, .AHEAD.);
#2180 = LOCAL_TIME (15, 7, 34., #2170);
#2190 = DATE_AND_TIME (#2160, #2180);
#2200 = CC_DESIGN_DATE_AND_TIME_ASSIGNMENT (#2190, #2150, (#2010));
#2210 = PERSON_AND_ORGANIZATION_ROLE ('classification_officer');
#2220 = PERSON ('', '', $, $, $, $);
#2230 = ORGANIZATION ($, '', '');
#2240 = PERSON_AND_ORGANIZATION (#2220, #2230);
#2250 = CC_DESIGN_PERSON_AND_ORGANIZATION_ASSIGNMENT (#2240, #2210, (#2010));
#2260 = CC_DESIGN_SECURITY_CLASSIFICATION (#2010, (#1760));
#2270 = DESIGN_CONTEXT ('', #1660, 'design');
#2280 = PRODUCT_DEFINITION ('', '', #1760, #2270);
#2290 = APPROVAL_STATUS ('approved');
#2300 = APPROVAL (#2290, '');
#2310 = CALENDAR_DATE (2013, 26, 4);
#2320 = COORDINATED_UNIVERSAL_TIME_OFFSET (0, $, .AHEAD.);
#2330 = LOCAL_TIME (15, 7, 34., #2320);
#2340 = DATE_AND_TIME (#2310, #2330);
#2350 = APPROVAL_DATE_TIME (#2340, #2300);
#2360 = APPROVAL_ROLE ('');
#2370 = PERSON ('', '', $, $, $, $);
#2380 = ORGANIZATION ($, '', '');
#2390 = PERSON_AND_ORGANIZATION (#2370, #2380);
#2400 = APPROVAL_PERSON_ORGANIZATION (#2390, #2300, #2360);
#2410 = CC_DESIGN_APPROVAL (#2300, (#2280));
#2420 = DATE_TIME_ROLE ('creation_date');
#2430 = CALENDAR_DATE (2013, 26, 4);
#2440 = COORDINATED_UNIVERSAL_TIME_OFFSET (0, $, .AHEAD.);
#2450 = LOCAL_TIME (15, 7, 34., #2440);
#2460 = DATE_AND_TIME (#2430, #2450);
#2470 = CC_DESIGN_DATE_AND_TIME_ASSIGNMENT (#2460, #2420, (#2280));
#2480 = PERSON_AND_ORGANIZATION_ROLE ('creator');
#2490 = PERSON ('', '', $, $, $, $);
#2500 = ORGANIZATION ($, '', '');
#2510 = PERSON_AND_ORGANIZATION (#2490, #2500);
#2520 = CC_DESIGN_PERSON_AND_ORGANIZATION_ASSIGNMENT (#2510, #2480, (#2280));
#2530 = PRODUCT_DEFINITION_SHAPE ('', '', #2280);
#2540 = SHAPE_DEFINITION_REPRESENTATION (#2530, #1650);
ENDSEC;
END-ISO-10303-21;
