ISO-10303-21;
HEADER;
FILE_DESCRIPTION ((), '1');
FILE_NAME ('T:\\CAD\\AsphXren\\S1ADX0312.STP', '2013-04-11T16:26:48', ('Unknown'), ('Unknown'), 'HarmonyWare STEP v1.5.0', 'HarmonyWare Translators', '');
FILE_SCHEMA (('CONFIG_CONTROL_DESIGN'));
ENDSEC;

DATA;
#10 = CARTESIAN_POINT ('', (19.05, 0., 2.84785988557147));
#20 = VERTEX_POINT ('', #10);
#30 = CARTESIAN_POINT ('', (1.16647607618785E-15, 19.05, 2.84785988557147));
#40 = VERTEX_POINT ('', #30);
#50 = CARTESIAN_POINT ('', (19.05, 0., 2.84785988557147));
#60 = CARTESIAN_POINT ('', (19.05, 19.05, 2.84785988557147));
#70 = CARTESIAN_POINT ('', (1.16647607618785E-15, 19.05, 2.84785988557147));
#80 = (
   BOUNDED_CURVE ()
   B_SPLINE_CURVE (2, (#50, #60, #70), .UNSPECIFIED., .F., .U.)
   B_SPLINE_CURVE_WITH_KNOTS ((3, 3), (0., 1.5707963267949), .UNSPECIFIED.)
   CURVE ()
   GEOMETRIC_REPRESENTATION_ITEM ()
   RATIONAL_B_SPLINE_CURVE ((1., 0.707106781186548, 1.))
   REPRESENTATION_ITEM ('')
);
#90 = EDGE_CURVE ('', #20, #40, #80, .T.);
#100 = ORIENTED_EDGE ('', *, *, #90, .T.);
#110 = CARTESIAN_POINT ('', (-19.05, 2.33295215237571E-15, 2.84785988557147));
#120 = VERTEX_POINT ('', #110);
#130 = CARTESIAN_POINT ('', (1.16647607618785E-15, 19.05, 2.84785988557147));
#140 = CARTESIAN_POINT ('', (-19.05, 19.05, 2.84785988557147));
#150 = CARTESIAN_POINT ('', (-19.05, 2.33295215237571E-15, 2.84785988557147));
#160 = (
   BOUNDED_CURVE ()
   B_SPLINE_CURVE (2, (#130, #140, #150), .UNSPECIFIED., .F., .U.)
   B_SPLINE_CURVE_WITH_KNOTS ((3, 3), (1.5707963267949, 3.14159265358979), .UNSPECIFIED.)
   CURVE ()
   GEOMETRIC_REPRESENTATION_ITEM ()
   RATIONAL_B_SPLINE_CURVE ((1., 0.707106781186548, 1.))
   REPRESENTATION_ITEM ('')
);
#170 = EDGE_CURVE ('', #40, #120, #160, .T.);
#180 = ORIENTED_EDGE ('', *, *, #170, .T.);
#190 = CARTESIAN_POINT ('', (-19.05, 2.33295215237571E-15, 9.69622957461369));
#200 = VERTEX_POINT ('', #190);
#210 = CARTESIAN_POINT ('', (-19.05, 2.33295215237571E-15, 2.84785988557147));
#220 = CARTESIAN_POINT ('', (-19.05, 2.33295215237571E-15, 9.69622957461369));
#230 = B_SPLINE_CURVE_WITH_KNOTS ('', 1, (#210, #220), .UNSPECIFIED., .F., .U., (2, 2), (0., 1.), .UNSPECIFIED.);
#240 = EDGE_CURVE ('', #120, #200, #230, .T.);
#250 = ORIENTED_EDGE ('', *, *, #240, .T.);
#260 = CARTESIAN_POINT ('', (19.05, 0., 9.69622957461369));
#270 = VERTEX_POINT ('', #260);
#280 = CARTESIAN_POINT ('', (19.05, 0., 9.69622957461369));
#290 = CARTESIAN_POINT ('', (19.05, 19.05, 9.69622957461369));
#300 = CARTESIAN_POINT ('', (1.16647607618785E-15, 19.05, 9.69622957461369));
#310 = CARTESIAN_POINT ('', (-19.05, 19.05, 9.69622957461369));
#320 = CARTESIAN_POINT ('', (-19.05, 2.33295215237571E-15, 9.69622957461369));
#330 = (
   BOUNDED_CURVE ()
   B_SPLINE_CURVE (2, (#280, #290, #300, #310, #320), .UNSPECIFIED., .F., .U.)
   B_SPLINE_CURVE_WITH_KNOTS ((3, 2, 3), (0., 1.5707963267949, 3.14159265358979), .UNSPECIFIED.)
   CURVE ()
   GEOMETRIC_REPRESENTATION_ITEM ()
   RATIONAL_B_SPLINE_CURVE ((1., 0.707106781186548, 1., 0.707106781186548, 1.))
   REPRESENTATION_ITEM ('')
);
#340 = EDGE_CURVE ('', #270, #200, #330, .T.);
#350 = ORIENTED_EDGE ('', *, *, #340, .F.);
#360 = CARTESIAN_POINT ('', (19.05, 0., 2.84785988557147));
#370 = CARTESIAN_POINT ('', (19.05, 0., 9.69622957461369));
#380 = B_SPLINE_CURVE_WITH_KNOTS ('', 1, (#360, #370), .UNSPECIFIED., .F., .U., (2, 2), (0., 1.), .UNSPECIFIED.);
#390 = EDGE_CURVE ('', #20, #270, #380, .T.);
#400 = ORIENTED_EDGE ('', *, *, #390, .F.);
#410 = EDGE_LOOP ('', (#100, #180, #250, #350, #400));
#420 = FACE_OUTER_BOUND ('', #410, .T.);
#430 = CARTESIAN_POINT ('', (-1.77635683940025E-15, 1.77635683940025E-15, 2.84785988557147));
#440 = DIRECTION ('', (0., 0., 1.));
#450 = DIRECTION ('', (1., -9.32470781837402E-17, 0.));
#460 = AXIS2_PLACEMENT_3D ('', #430, #440, #450);
#470 = CYLINDRICAL_SURFACE ('', #460, 19.05);
#480 = ADVANCED_FACE ('', (#420), #470, .T.);
#490 = CARTESIAN_POINT ('', (-19.05, 2.33295215237571E-15, 2.84785988557147));
#500 = CARTESIAN_POINT ('', (-19.05, -19.05, 2.84785988557147));
#510 = CARTESIAN_POINT ('', (-3.49942822856356E-15, -19.05, 2.84785988557147));
#520 = CARTESIAN_POINT ('', (19.05, -19.05, 2.84785988557147));
#530 = CARTESIAN_POINT ('', (19.05, -4.66590430475142E-15, 2.84785988557147));
#540 = (
   BOUNDED_CURVE ()
   B_SPLINE_CURVE (2, (#490, #500, #510, #520, #530), .UNSPECIFIED., .F., .U.)
   B_SPLINE_CURVE_WITH_KNOTS ((3, 2, 3), (3.14159265358979, 4.71238898038469, 6.28318530717959), .UNSPECIFIED.)
   CURVE ()
   GEOMETRIC_REPRESENTATION_ITEM ()
   RATIONAL_B_SPLINE_CURVE ((1., 0.707106781186548, 1., 0.707106781186548, 1.))
   REPRESENTATION_ITEM ('')
);
#550 = EDGE_CURVE ('', #120, #20, #540, .T.);
#560 = ORIENTED_EDGE ('', *, *, #550, .T.);
#570 = ORIENTED_EDGE ('', *, *, #390, .T.);
#580 = CARTESIAN_POINT ('', (-19.05, 2.33295215237571E-15, 9.69622957461369));
#590 = CARTESIAN_POINT ('', (-19.05, -19.05, 9.69622957461369));
#600 = CARTESIAN_POINT ('', (-3.49942822856356E-15, -19.05, 9.69622957461369));
#610 = CARTESIAN_POINT ('', (19.05, -19.05, 9.69622957461369));
#620 = CARTESIAN_POINT ('', (19.05, -4.66590430475142E-15, 9.69622957461369));
#630 = (
   BOUNDED_CURVE ()
   B_SPLINE_CURVE (2, (#580, #590, #600, #610, #620), .UNSPECIFIED., .F., .U.)
   B_SPLINE_CURVE_WITH_KNOTS ((3, 2, 3), (3.14159265358979, 4.71238898038469, 6.28318530717959), .UNSPECIFIED.)
   CURVE ()
   GEOMETRIC_REPRESENTATION_ITEM ()
   RATIONAL_B_SPLINE_CURVE ((1., 0.707106781186548, 1., 0.707106781186548, 1.))
   REPRESENTATION_ITEM ('')
);
#640 = EDGE_CURVE ('', #200, #270, #630, .T.);
#650 = ORIENTED_EDGE ('', *, *, #640, .F.);
#660 = ORIENTED_EDGE ('', *, *, #240, .F.);
#670 = EDGE_LOOP ('', (#560, #570, #650, #660));
#680 = FACE_OUTER_BOUND ('', #670, .T.);
#690 = CARTESIAN_POINT ('', (0., -1.77635683940025E-15, 2.84785988557147));
#700 = DIRECTION ('', (0., 0., 1.));
#710 = DIRECTION ('', (-1., 2.15711758098476E-16, 0.));
#720 = AXIS2_PLACEMENT_3D ('', #690, #700, #710);
#730 = CYLINDRICAL_SURFACE ('', #720, 19.05);
#740 = ADVANCED_FACE ('', (#680), #730, .T.);
#750 = CARTESIAN_POINT ('', (0., 0., 0.));
#760 = VERTEX_POINT ('', #750);
#770 = CARTESIAN_POINT ('', (0., 0., 0.));
#780 = CARTESIAN_POINT ('', (0., 1.72166659884572, 0.));
#790 = CARTESIAN_POINT ('', (0., 4.24104317019775, 0.101973608664052));
#800 = CARTESIAN_POINT ('', (0., 8.34782712536373, 0.510319884031586));
#810 = CARTESIAN_POINT ('', (0., 11.5276677457426, 1.00582259806268));
#820 = CARTESIAN_POINT ('', (0., 15.3671700902671, 1.81945651570866));
#830 = CARTESIAN_POINT ('', (0., 17.6077806394383, 2.41502298651516));
#840 = CARTESIAN_POINT ('', (0., 19.05, 2.84785988557147));
#850 = (
   BOUNDED_CURVE ()
   B_SPLINE_CURVE (3, (#770, #780, #790, #800, #810, #820, #830, #840), .UNSPECIFIED., .F., .U.)
   B_SPLINE_CURVE_WITH_KNOTS ((4, 1, 1, 1, 1, 4), (0., 0.267194671788358, 0.390995528239162, 0.64038507524193, 0.766311418705605, 1.), .UNSPECIFIED.)
   CURVE ()
   GEOMETRIC_REPRESENTATION_ITEM ()
   RATIONAL_B_SPLINE_CURVE ((1., 1., 1., 1., 1., 1., 1., 1.))
   REPRESENTATION_ITEM ('')
);
#860 = EDGE_CURVE ('', #760, #40, #850, .T.);
#870 = ORIENTED_EDGE ('', *, *, #860, .T.);
#880 = ORIENTED_EDGE ('', *, *, #90, .F.);
#890 = ORIENTED_EDGE ('', *, *, #550, .F.);
#900 = ORIENTED_EDGE ('', *, *, #170, .F.);
#910 = ORIENTED_EDGE ('', *, *, #860, .F.);
#920 = EDGE_LOOP ('', (#870, #880, #890, #900, #910));
#930 = FACE_OUTER_BOUND ('', #920, .T.);
#940 = CARTESIAN_POINT ('', (0., 19.05, 2.84785988557147));
#950 = CARTESIAN_POINT ('', (-19.05, 19.05, 2.84785988557147));
#960 = CARTESIAN_POINT ('', (-19.05, 1.16647607618785E-15, 2.84785988557147));
#970 = CARTESIAN_POINT ('', (-19.05, -19.05, 2.84785988557147));
#980 = CARTESIAN_POINT ('', (-2.33295215237571E-15, -19.05, 2.84785988557147));
#990 = CARTESIAN_POINT ('', (19.05, -19.05, 2.84785988557147));
#1000 = CARTESIAN_POINT ('', (19.05, -3.49942822856356E-15, 2.84785988557147));
#1010 = CARTESIAN_POINT ('', (19.05, 19.05, 2.84785988557147));
#1020 = CARTESIAN_POINT ('', (0., 19.05, 2.84785988557147));
#1030 = CARTESIAN_POINT ('', (0., 17.6077806394383, 2.41502298651516));
#1040 = CARTESIAN_POINT ('', (-17.6077806394383, 17.6077806394383, 2.41502298651516));
#1050 = CARTESIAN_POINT ('', (-17.6077806394383, 1.07816561000884E-15, 2.41502298651516));
#1060 = CARTESIAN_POINT ('', (-17.6077806394383, -17.6077806394383, 2.41502298651516));
#1070 = CARTESIAN_POINT ('', (-2.15633122001768E-15, -17.6077806394383, 2.41502298651516));
#1080 = CARTESIAN_POINT ('', (17.6077806394383, -17.6077806394383, 2.41502298651516));
#1090 = CARTESIAN_POINT ('', (17.6077806394383, -3.23449683002652E-15, 2.41502298651516));
#1100 = CARTESIAN_POINT ('', (17.6077806394383, 17.6077806394383, 2.41502298651516));
#1110 = CARTESIAN_POINT ('', (0., 17.6077806394383, 2.41502298651516));
#1120 = CARTESIAN_POINT ('', (0., 15.3671700902671, 1.81945651570866));
#1130 = CARTESIAN_POINT ('', (-15.3671700902671, 15.3671700902671, 1.81945651570866));
#1140 = CARTESIAN_POINT ('', (-15.3671700902671, 9.40967783149925E-16, 1.81945651570866));
#1150 = CARTESIAN_POINT ('', (-15.3671700902671, -15.3671700902671, 1.81945651570866));
#1160 = CARTESIAN_POINT ('', (-1.88193556629985E-15, -15.3671700902671, 1.81945651570866));
#1170 = CARTESIAN_POINT ('', (15.3671700902671, -15.3671700902671, 1.81945651570866));
#1180 = CARTESIAN_POINT ('', (15.3671700902671, -2.82290334944977E-15, 1.81945651570866));
#1190 = CARTESIAN_POINT ('', (15.3671700902671, 15.3671700902671, 1.81945651570866));
#1200 = CARTESIAN_POINT ('', (0., 15.3671700902671, 1.81945651570866));
#1210 = CARTESIAN_POINT ('', (0., 11.5276677457426, 1.00582259806268));
#1220 = CARTESIAN_POINT ('', (-11.5276677457426, 11.5276677457426, 1.00582259806268));
#1230 = CARTESIAN_POINT ('', (-11.5276677457426, 7.05866070322896E-16, 1.00582259806268));
#1240 = CARTESIAN_POINT ('', (-11.5276677457426, -11.5276677457426, 1.00582259806268));
#1250 = CARTESIAN_POINT ('', (-1.41173214064579E-15, -11.5276677457426, 1.00582259806268));
#1260 = CARTESIAN_POINT ('', (11.5276677457426, -11.5276677457426, 1.00582259806268));
#1270 = CARTESIAN_POINT ('', (11.5276677457426, -2.11759821096869E-15, 1.00582259806268));
#1280 = CARTESIAN_POINT ('', (11.5276677457426, 11.5276677457426, 1.00582259806268));
#1290 = CARTESIAN_POINT ('', (0., 11.5276677457426, 1.00582259806268));
#1300 = CARTESIAN_POINT ('', (0., 8.34782712536373, 0.510319884031586));
#1310 = CARTESIAN_POINT ('', (-8.34782712536373, 8.34782712536373, 0.510319884031586));
#1320 = CARTESIAN_POINT ('', (-8.34782712536373, 5.11156988445607E-16, 0.510319884031586));
#1330 = CARTESIAN_POINT ('', (-8.34782712536374, -8.34782712536373, 0.510319884031586));
#1340 = CARTESIAN_POINT ('', (-1.02231397689121E-15, -8.34782712536373, 0.510319884031586));
#1350 = CARTESIAN_POINT ('', (8.34782712536373, -8.34782712536374, 0.510319884031586));
#1360 = CARTESIAN_POINT ('', (8.34782712536373, -1.53347096533682E-15, 0.510319884031586));
#1370 = CARTESIAN_POINT ('', (8.34782712536374, 8.34782712536373, 0.510319884031586));
#1380 = CARTESIAN_POINT ('', (0., 8.34782712536373, 0.510319884031586));
#1390 = CARTESIAN_POINT ('', (0., 4.24104317019775, 0.101973608664052));
#1400 = CARTESIAN_POINT ('', (-4.24104317019775, 4.24104317019775, 0.101973608664052));
#1410 = CARTESIAN_POINT ('', (-4.24104317019775, 2.59688997171421E-16, 0.101973608664052));
#1420 = CARTESIAN_POINT ('', (-4.24104317019775, -4.24104317019775, 0.101973608664052));
#1430 = CARTESIAN_POINT ('', (-5.19377994342842E-16, -4.24104317019775, 0.101973608664052));
#1440 = CARTESIAN_POINT ('', (4.24104317019775, -4.24104317019775, 0.101973608664052));
#1450 = CARTESIAN_POINT ('', (4.24104317019775, -7.79066991514263E-16, 0.101973608664052));
#1460 = CARTESIAN_POINT ('', (4.24104317019775, 4.24104317019775, 0.101973608664052));
#1470 = CARTESIAN_POINT ('', (0., 4.24104317019775, 0.101973608664052));
#1480 = CARTESIAN_POINT ('', (0., 1.72166659884572, 0.));
#1490 = CARTESIAN_POINT ('', (-1.72166659884572, 1.72166659884572, 0.));
#1500 = CARTESIAN_POINT ('', (-1.72166659884572, 1.05421674473766E-16, 0.));
#1510 = CARTESIAN_POINT ('', (-1.72166659884572, -1.72166659884572, 0.));
#1520 = CARTESIAN_POINT ('', (-2.10843348947532E-16, -1.72166659884572, 0.));
#1530 = CARTESIAN_POINT ('', (1.72166659884572, -1.72166659884572, 0.));
#1540 = CARTESIAN_POINT ('', (1.72166659884572, -3.16265023421298E-16, 0.));
#1550 = CARTESIAN_POINT ('', (1.72166659884572, 1.72166659884572, 0.));
#1560 = CARTESIAN_POINT ('', (0., 1.72166659884572, 0.));
#1570 = CARTESIAN_POINT ('', (0., 0., 0.));
#1580 = CARTESIAN_POINT ('', (0., 0., 0.));
#1590 = CARTESIAN_POINT ('', (0., 0., 0.));
#1600 = CARTESIAN_POINT ('', (0., 0., 0.));
#1610 = CARTESIAN_POINT ('', (0., 0., 0.));
#1620 = CARTESIAN_POINT ('', (0., 0., 0.));
#1630 = CARTESIAN_POINT ('', (0., 0., 0.));
#1640 = CARTESIAN_POINT ('', (0., 0., 0.));
#1650 = CARTESIAN_POINT ('', (0., 0., 0.));
#1660 = (
   BOUNDED_SURFACE ()
   B_SPLINE_SURFACE (3, 2, ((#940, #950, #960, #970, #980, #990, #1000, #1010, #1020), (#1030, #1040, #1050, #1060, #1070, #1080, #1090, #1100, #1110), (#1120, #1130, #1140, #1150, #1160, #1170, #1180, #1190, #1200), (#1210, #1220, #1230, #1240, #1250, #1260, #1270, #1280, #1290), (#1300, #1310, #1320, #1330, #1340, #1350, #1360, #1370, #1380), (#1390, #1400, #1410, #1420, #1430, #1440, #1450, #1460, #1470), (#1480, #1490, #1500, #1510, #1520, #1530, #1540, #1550, #1560), (#1570, #1580, #1590, #1600, #1610, #1620, #1630, #1640, #1650)), .UNSPECIFIED., .F., .T., .U.)
   B_SPLINE_SURFACE_WITH_KNOTS ((4, 1, 1, 1, 1, 4), (3, 2, 2, 2, 3), (0., 0.233688581294395, 0.35961492475807, 0.609004471760838, 0.732805328211642, 1.), (0., 90., 180., 270., 360.), .UNSPECIFIED.)
   SURFACE ()
   GEOMETRIC_REPRESENTATION_ITEM ()
   RATIONAL_B_SPLINE_SURFACE (((1., 0.707106781186548, 1., 0.707106781186548, 1., 0.707106781186548, 1., 0.707106781186548, 1.), (1., 0.707106781186548, 1., 0.707106781186548, 1., 0.707106781186548, 1., 0.707106781186548, 1.), (1., 0.707106781186548, 1., 0.707106781186548, 1., 0.707106781186548, 1., 0.707106781186548, 1.), (1., 0.707106781186548, 1., 0.707106781186548, 1., 0.707106781186548, 1., 0.707106781186548, 1.), (1., 0.707106781186548, 1., 0.707106781186548, 1., 0.707106781186548, 1., 0.707106781186548, 1.), (1., 0.707106781186548, 1., 0.707106781186548, 1., 0.707106781186548, 1., 0.707106781186548, 1.), (1., 0.707106781186548, 1., 0.707106781186548, 1., 0.707106781186548, 1., 0.707106781186548, 1.), (1., 0.707106781186548, 1., 0.707106781186548, 1., 0.707106781186548, 1., 0.707106781186548, 1.)))
   REPRESENTATION_ITEM ('')
);
#1670 = ADVANCED_FACE ('', (#930), #1660, .T.);
#1680 = ORIENTED_EDGE ('', *, *, #340, .T.);
#1690 = ORIENTED_EDGE ('', *, *, #640, .T.);
#1700 = EDGE_LOOP ('', (#1680, #1690));
#1710 = FACE_OUTER_BOUND ('', #1700, .T.);
#1720 = CARTESIAN_POINT ('', (8.5265128291212E-14, 0., -317.691999999962));
#1730 = DIRECTION ('', (-1., 3.54435552479834E-16, 5.19126374852547E-17));
#1740 = DIRECTION ('', (-3.54435552479834E-16, -1., 7.08871104959668E-16));
#1750 = AXIS2_PLACEMENT_3D ('', #1720, #1730, #1740);
#1760 = SPHERICAL_SURFACE ('', #1750, 327.941999999962);
#1770 = ADVANCED_FACE ('', (#1710), #1760, .T.);
#1780 = CLOSED_SHELL ('', (#480, #740, #1670, #1770));
#1790 = MANIFOLD_SOLID_BREP ('', #1780);
#1800 = (
   LENGTH_UNIT ()
   NAMED_UNIT (*)
   SI_UNIT (.MILLI., .METRE.)
);
#1810 = (
   NAMED_UNIT (*)
   SI_UNIT ($, .STERADIAN.)
   SOLID_ANGLE_UNIT ()
);
#1820 = (
   NAMED_UNIT (*)
   SI_UNIT ($, .RADIAN.)
   PLANE_ANGLE_UNIT ()
);
#1830 = UNCERTAINTY_MEASURE_WITH_UNIT (LENGTH_MEASURE(0.0001), #1800, 'DISTANCE_ACCURACY_VALUE', '');
#1840 = (
   GEOMETRIC_REPRESENTATION_CONTEXT (3)
   GLOBAL_UNCERTAINTY_ASSIGNED_CONTEXT ((#1830))
   GLOBAL_UNIT_ASSIGNED_CONTEXT ((#1800, #1810, #1820))
   REPRESENTATION_CONTEXT ('', '3D')
);
#1850 = ADVANCED_BREP_SHAPE_REPRESENTATION ('', (#1790), #1840);
#1860 = APPLICATION_CONTEXT ('configuration controlled 3D designs of mechanical parts and assemblies');
#1870 = APPLICATION_PROTOCOL_DEFINITION ('International Standard', 'config_control_design', 1997, #1860);
#1880 = MECHANICAL_CONTEXT ('', #1860, 'mechanical');
#1890 = PRODUCT ('product-name', '', '', (#1880));
#1900 = PERSON_AND_ORGANIZATION_ROLE ('design_owner');
#1910 = PERSON ('', '', $, $, $, $);
#1920 = ORGANIZATION ($, '', '');
#1930 = PERSON_AND_ORGANIZATION (#1910, #1920);
#1940 = CC_DESIGN_PERSON_AND_ORGANIZATION_ASSIGNMENT (#1930, #1900, (#1890));
#1950 = PRODUCT_RELATED_PRODUCT_CATEGORY ('detail', $, (#1890));
#1960 = PRODUCT_DEFINITION_FORMATION_WITH_SPECIFIED_SOURCE ('', '', #1890, .NOT_KNOWN.);
#1970 = APPROVAL_STATUS ('approved');
#1980 = APPROVAL (#1970, '');
#1990 = CALENDAR_DATE (2013, 11, 4);
#2000 = COORDINATED_UNIVERSAL_TIME_OFFSET (0, $, .AHEAD.);
#2010 = LOCAL_TIME (16, 26, 48., #2000);
#2020 = DATE_AND_TIME (#1990, #2010);
#2030 = APPROVAL_DATE_TIME (#2020, #1980);
#2040 = APPROVAL_ROLE ('');
#2050 = PERSON ('', '', $, $, $, $);
#2060 = ORGANIZATION ($, '', '');
#2070 = PERSON_AND_ORGANIZATION (#2050, #2060);
#2080 = APPROVAL_PERSON_ORGANIZATION (#2070, #1980, #2040);
#2090 = CC_DESIGN_APPROVAL (#1980, (#1960));
#2100 = PERSON_AND_ORGANIZATION_ROLE ('creator');
#2110 = PERSON ('', '', $, $, $, $);
#2120 = ORGANIZATION ($, '', '');
#2130 = PERSON_AND_ORGANIZATION (#2110, #2120);
#2140 = CC_DESIGN_PERSON_AND_ORGANIZATION_ASSIGNMENT (#2130, #2100, (#1960));
#2150 = PERSON_AND_ORGANIZATION_ROLE ('part_supplier');
#2160 = PERSON ('', '', $, $, $, $);
#2170 = ORGANIZATION ($, '', '');
#2180 = PERSON_AND_ORGANIZATION (#2160, #2170);
#2190 = CC_DESIGN_PERSON_AND_ORGANIZATION_ASSIGNMENT (#2180, #2150, (#1960));
#2200 = SECURITY_CLASSIFICATION_LEVEL ('unclassified');
#2210 = SECURITY_CLASSIFICATION ('', '', #2200);
#2220 = APPROVAL_STATUS ('approved');
#2230 = APPROVAL (#2220, '');
#2240 = CALENDAR_DATE (2013, 11, 4);
#2250 = COORDINATED_UNIVERSAL_TIME_OFFSET (0, $, .AHEAD.);
#2260 = LOCAL_TIME (16, 26, 48., #2250);
#2270 = DATE_AND_TIME (#2240, #2260);
#2280 = APPROVAL_DATE_TIME (#2270, #2230);
#2290 = APPROVAL_ROLE ('');
#2300 = PERSON ('', '', $, $, $, $);
#2310 = ORGANIZATION ($, '', '');
#2320 = PERSON_AND_ORGANIZATION (#2300, #2310);
#2330 = APPROVAL_PERSON_ORGANIZATION (#2320, #2230, #2290);
#2340 = CC_DESIGN_APPROVAL (#2230, (#2210));
#2350 = DATE_TIME_ROLE ('classification_date');
#2360 = CALENDAR_DATE (2013, 11, 4);
#2370 = COORDINATED_UNIVERSAL_TIME_OFFSET (0, $, .AHEAD.);
#2380 = LOCAL_TIME (16, 26, 48., #2370);
#2390 = DATE_AND_TIME (#2360, #2380);
#2400 = CC_DESIGN_DATE_AND_TIME_ASSIGNMENT (#2390, #2350, (#2210));
#2410 = PERSON_AND_ORGANIZATION_ROLE ('classification_officer');
#2420 = PERSON ('', '', $, $, $, $);
#2430 = ORGANIZATION ($, '', '');
#2440 = PERSON_AND_ORGANIZATION (#2420, #2430);
#2450 = CC_DESIGN_PERSON_AND_ORGANIZATION_ASSIGNMENT (#2440, #2410, (#2210));
#2460 = CC_DESIGN_SECURITY_CLASSIFICATION (#2210, (#1960));
#2470 = DESIGN_CONTEXT ('', #1860, 'design');
#2480 = PRODUCT_DEFINITION ('', '', #1960, #2470);
#2490 = APPROVAL_STATUS ('approved');
#2500 = APPROVAL (#2490, '');
#2510 = CALENDAR_DATE (2013, 11, 4);
#2520 = COORDINATED_UNIVERSAL_TIME_OFFSET (0, $, .AHEAD.);
#2530 = LOCAL_TIME (16, 26, 48., #2520);
#2540 = DATE_AND_TIME (#2510, #2530);
#2550 = APPROVAL_DATE_TIME (#2540, #2500);
#2560 = APPROVAL_ROLE ('');
#2570 = PERSON ('', '', $, $, $, $);
#2580 = ORGANIZATION ($, '', '');
#2590 = PERSON_AND_ORGANIZATION (#2570, #2580);
#2600 = APPROVAL_PERSON_ORGANIZATION (#2590, #2500, #2560);
#2610 = CC_DESIGN_APPROVAL (#2500, (#2480));
#2620 = DATE_TIME_ROLE ('creation_date');
#2630 = CALENDAR_DATE (2013, 11, 4);
#2640 = COORDINATED_UNIVERSAL_TIME_OFFSET (0, $, .AHEAD.);
#2650 = LOCAL_TIME (16, 26, 48., #2640);
#2660 = DATE_AND_TIME (#2630, #2650);
#2670 = CC_DESIGN_DATE_AND_TIME_ASSIGNMENT (#2660, #2620, (#2480));
#2680 = PERSON_AND_ORGANIZATION_ROLE ('creator');
#2690 = PERSON ('', '', $, $, $, $);
#2700 = ORGANIZATION ($, '', '');
#2710 = PERSON_AND_ORGANIZATION (#2690, #2700);
#2720 = CC_DESIGN_PERSON_AND_ORGANIZATION_ASSIGNMENT (#2710, #2680, (#2480));
#2730 = PRODUCT_DEFINITION_SHAPE ('', '', #2480);
#2740 = SHAPE_DEFINITION_REPRESENTATION (#2730, #1850);
ENDSEC;
END-ISO-10303-21;
