ISO-10303-21;
HEADER;
FILE_DESCRIPTION ((), '1');
FILE_NAME ('T:\\CAD\\AsphXren\\S1ADX0250.STP', '2013-03-13T12:08:56', ('Unknown'), ('Unknown'), 'HarmonyWare STEP v1.5.0', 'HarmonyWare Translators', '');
FILE_SCHEMA (('CONFIG_CONTROL_DESIGN'));
ENDSEC;

DATA;
#10 = CARTESIAN_POINT ('', (15., 0., 4.24762024512995));
#20 = VERTEX_POINT ('', #10);
#30 = CARTESIAN_POINT ('', (9.18485099360515E-16, 15., 4.24762024512995));
#40 = VERTEX_POINT ('', #30);
#50 = CARTESIAN_POINT ('', (15., 0., 4.24762024512995));
#60 = CARTESIAN_POINT ('', (15., 15., 4.24762024512995));
#70 = CARTESIAN_POINT ('', (9.18485099360515E-16, 15., 4.24762024512995));
#80 = (
   BOUNDED_CURVE ()
   B_SPLINE_CURVE (2, (#50, #60, #70), .UNSPECIFIED., .F., .U.)
   B_SPLINE_CURVE_WITH_KNOTS ((3, 3), (0., 1.5707963267949), .UNSPECIFIED.)
   CURVE ()
   GEOMETRIC_REPRESENTATION_ITEM ()
   RATIONAL_B_SPLINE_CURVE ((1., 0.707106781186548, 1.))
   REPRESENTATION_ITEM ('')
);
#90 = EDGE_CURVE ('', #20, #40, #80, .T.);
#100 = ORIENTED_EDGE ('', *, *, #90, .T.);
#110 = CARTESIAN_POINT ('', (-15., 1.83697019872103E-15, 4.24762024512995));
#120 = VERTEX_POINT ('', #110);
#130 = CARTESIAN_POINT ('', (9.18485099360515E-16, 15., 4.24762024512995));
#140 = CARTESIAN_POINT ('', (-15., 15., 4.24762024512995));
#150 = CARTESIAN_POINT ('', (-15., 1.83697019872103E-15, 4.24762024512995));
#160 = (
   BOUNDED_CURVE ()
   B_SPLINE_CURVE (2, (#130, #140, #150), .UNSPECIFIED., .F., .U.)
   B_SPLINE_CURVE_WITH_KNOTS ((3, 3), (1.5707963267949, 3.14159265358979), .UNSPECIFIED.)
   CURVE ()
   GEOMETRIC_REPRESENTATION_ITEM ()
   RATIONAL_B_SPLINE_CURVE ((1., 0.707106781186548, 1.))
   REPRESENTATION_ITEM ('')
);
#170 = EDGE_CURVE ('', #40, #120, #160, .T.);
#180 = ORIENTED_EDGE ('', *, *, #170, .T.);
#190 = CARTESIAN_POINT ('', (-15., 1.83697019872103E-15, 12.731598294703));
#200 = VERTEX_POINT ('', #190);
#210 = CARTESIAN_POINT ('', (-15., 1.83697019872103E-15, 4.24762024512995));
#220 = CARTESIAN_POINT ('', (-15., 1.83697019872103E-15, 12.731598294703));
#230 = B_SPLINE_CURVE_WITH_KNOTS ('', 1, (#210, #220), .UNSPECIFIED., .F., .U., (2, 2), (0., 1.), .UNSPECIFIED.);
#240 = EDGE_CURVE ('', #120, #200, #230, .T.);
#250 = ORIENTED_EDGE ('', *, *, #240, .T.);
#260 = CARTESIAN_POINT ('', (15., 0., 12.731598294703));
#270 = VERTEX_POINT ('', #260);
#280 = CARTESIAN_POINT ('', (15., 0., 12.731598294703));
#290 = CARTESIAN_POINT ('', (15., 15., 12.731598294703));
#300 = CARTESIAN_POINT ('', (9.18485099360515E-16, 15., 12.731598294703));
#310 = CARTESIAN_POINT ('', (-15., 15., 12.731598294703));
#320 = CARTESIAN_POINT ('', (-15., 1.83697019872103E-15, 12.731598294703));
#330 = (
   BOUNDED_CURVE ()
   B_SPLINE_CURVE (2, (#280, #290, #300, #310, #320), .UNSPECIFIED., .F., .U.)
   B_SPLINE_CURVE_WITH_KNOTS ((3, 2, 3), (0., 1.5707963267949, 3.14159265358979), .UNSPECIFIED.)
   CURVE ()
   GEOMETRIC_REPRESENTATION_ITEM ()
   RATIONAL_B_SPLINE_CURVE ((1., 0.707106781186548, 1., 0.707106781186548, 1.))
   REPRESENTATION_ITEM ('')
);
#340 = EDGE_CURVE ('', #270, #200, #330, .T.);
#350 = ORIENTED_EDGE ('', *, *, #340, .F.);
#360 = CARTESIAN_POINT ('', (15., 0., 4.24762024512995));
#370 = CARTESIAN_POINT ('', (15., 0., 12.731598294703));
#380 = B_SPLINE_CURVE_WITH_KNOTS ('', 1, (#360, #370), .UNSPECIFIED., .F., .U., (2, 2), (0., 1.), .UNSPECIFIED.);
#390 = EDGE_CURVE ('', #20, #270, #380, .T.);
#400 = ORIENTED_EDGE ('', *, *, #390, .F.);
#410 = EDGE_LOOP ('', (#100, #180, #250, #350, #400));
#420 = FACE_OUTER_BOUND ('', #410, .T.);
#430 = CARTESIAN_POINT ('', (1.77635683940025E-15, 2.66453525910038E-15, 4.24762024512995));
#440 = DIRECTION ('', (0., 0., 1.));
#450 = DIRECTION ('', (1., -1.77635683940025E-16, 0.));
#460 = AXIS2_PLACEMENT_3D ('', #430, #440, #450);
#470 = CYLINDRICAL_SURFACE ('', #460, 15.);
#480 = ADVANCED_FACE ('', (#420), #470, .T.);
#490 = CARTESIAN_POINT ('', (-15., 1.83697019872103E-15, 4.24762024512995));
#500 = CARTESIAN_POINT ('', (-15., -15., 4.24762024512995));
#510 = CARTESIAN_POINT ('', (-2.75545529808154E-15, -15., 4.24762024512995));
#520 = CARTESIAN_POINT ('', (15., -15., 4.24762024512995));
#530 = CARTESIAN_POINT ('', (15., -3.67394039744206E-15, 4.24762024512995));
#540 = (
   BOUNDED_CURVE ()
   B_SPLINE_CURVE (2, (#490, #500, #510, #520, #530), .UNSPECIFIED., .F., .U.)
   B_SPLINE_CURVE_WITH_KNOTS ((3, 2, 3), (3.14159265358979, 4.71238898038469, 6.28318530717959), .UNSPECIFIED.)
   CURVE ()
   GEOMETRIC_REPRESENTATION_ITEM ()
   RATIONAL_B_SPLINE_CURVE ((1., 0.707106781186548, 1., 0.707106781186548, 1.))
   REPRESENTATION_ITEM ('')
);
#550 = EDGE_CURVE ('', #120, #20, #540, .T.);
#560 = ORIENTED_EDGE ('', *, *, #550, .T.);
#570 = ORIENTED_EDGE ('', *, *, #390, .T.);
#580 = CARTESIAN_POINT ('', (-15., 1.83697019872103E-15, 12.731598294703));
#590 = CARTESIAN_POINT ('', (-15., -15., 12.731598294703));
#600 = CARTESIAN_POINT ('', (-2.75545529808154E-15, -15., 12.731598294703));
#610 = CARTESIAN_POINT ('', (15., -15., 12.731598294703));
#620 = CARTESIAN_POINT ('', (15., -3.67394039744206E-15, 12.731598294703));
#630 = (
   BOUNDED_CURVE ()
   B_SPLINE_CURVE (2, (#580, #590, #600, #610, #620), .UNSPECIFIED., .F., .U.)
   B_SPLINE_CURVE_WITH_KNOTS ((3, 2, 3), (3.14159265358979, 4.71238898038469, 6.28318530717959), .UNSPECIFIED.)
   CURVE ()
   GEOMETRIC_REPRESENTATION_ITEM ()
   RATIONAL_B_SPLINE_CURVE ((1., 0.707106781186548, 1., 0.707106781186548, 1.))
   REPRESENTATION_ITEM ('')
);
#640 = EDGE_CURVE ('', #200, #270, #630, .T.);
#650 = ORIENTED_EDGE ('', *, *, #640, .F.);
#660 = ORIENTED_EDGE ('', *, *, #240, .F.);
#670 = EDGE_LOOP ('', (#560, #570, #650, #660));
#680 = FACE_OUTER_BOUND ('', #670, .T.);
#690 = CARTESIAN_POINT ('', (3.5527136788005E-15, -8.88178419700125E-16, 4.24762024512995));
#700 = DIRECTION ('', (0., 0., 1.));
#710 = DIRECTION ('', (-1., 1.8167657456141E-16, 0.));
#720 = AXIS2_PLACEMENT_3D ('', #690, #700, #710);
#730 = CYLINDRICAL_SURFACE ('', #720, 15.);
#740 = ADVANCED_FACE ('', (#680), #730, .T.);
#750 = CARTESIAN_POINT ('', (0., 0., 0.));
#760 = VERTEX_POINT ('', #750);
#770 = CARTESIAN_POINT ('', (0., 0., 0.));
#780 = CARTESIAN_POINT ('', (0., 0.729988987520033, 0.));
#790 = CARTESIAN_POINT ('', (0., 1.87903789811159, 0.0470025668068557));
#800 = CARTESIAN_POINT ('', (0., 3.23127824217656, 0.189023453224119));
#810 = CARTESIAN_POINT ('', (0., 4.48453828865383, 0.364550218634885));
#820 = CARTESIAN_POINT ('', (0., 5.95181091504647, 0.63946033108604));
#830 = CARTESIAN_POINT ('', (0., 7.83090457626497, 1.12495213098631));
#840 = CARTESIAN_POINT ('', (0., 9.70965356906671, 1.74494181876546));
#850 = CARTESIAN_POINT ('', (0., 11.587966621325, 2.50063802349186));
#860 = CARTESIAN_POINT ('', (0., 13.3568724334638, 3.34138796252711));
#870 = CARTESIAN_POINT ('', (0., 14.48596780504, 3.95359728672082));
#880 = CARTESIAN_POINT ('', (0., 15., 4.24762024512995));
#890 = (
   BOUNDED_CURVE ()
   B_SPLINE_CURVE (3, (#770, #780, #790, #800, #810, #820, #830, #840, #850, #860, #870, #880), .UNSPECIFIED., .F., .U.)
   B_SPLINE_CURVE_WITH_KNOTS ((4, 1, 1, 1, 1, 1, 1, 1, 1, 4), (0., 0.138867900339559, 0.218575774910281, 0.258595743843401, 0.379577943543766, 0.502387610462803, 0.627589490909123, 0.755733974274904, 0.887347666783999, 1.), .UNSPECIFIED.)
   CURVE ()
   GEOMETRIC_REPRESENTATION_ITEM ()
   RATIONAL_B_SPLINE_CURVE ((1., 1., 1., 1., 1., 1., 1., 1., 1., 1., 1., 1.))
   REPRESENTATION_ITEM ('')
);
#900 = EDGE_CURVE ('', #760, #40, #890, .T.);
#910 = ORIENTED_EDGE ('', *, *, #900, .T.);
#920 = ORIENTED_EDGE ('', *, *, #90, .F.);
#930 = ORIENTED_EDGE ('', *, *, #550, .F.);
#940 = ORIENTED_EDGE ('', *, *, #170, .F.);
#950 = ORIENTED_EDGE ('', *, *, #900, .F.);
#960 = EDGE_LOOP ('', (#910, #920, #930, #940, #950));
#970 = FACE_OUTER_BOUND ('', #960, .T.);
#980 = CARTESIAN_POINT ('', (0., 15., 4.24762024512995));
#990 = CARTESIAN_POINT ('', (-15., 15., 4.24762024512995));
#1000 = CARTESIAN_POINT ('', (-15., 9.18485099360515E-16, 4.24762024512995));
#1010 = CARTESIAN_POINT ('', (-15., -15., 4.24762024512995));
#1020 = CARTESIAN_POINT ('', (-1.83697019872103E-15, -15., 4.24762024512995));
#1030 = CARTESIAN_POINT ('', (15., -15., 4.24762024512995));
#1040 = CARTESIAN_POINT ('', (15., -2.75545529808154E-15, 4.24762024512995));
#1050 = CARTESIAN_POINT ('', (15., 15., 4.24762024512995));
#1060 = CARTESIAN_POINT ('', (0., 15., 4.24762024512995));
#1070 = CARTESIAN_POINT ('', (0., 14.48596780504, 3.95359728672082));
#1080 = CARTESIAN_POINT ('', (-14.48596780504, 14.48596780504, 3.95359728672082));
#1090 = CARTESIAN_POINT ('', (-14.48596780504, 8.87009705249691E-16, 3.95359728672082));
#1100 = CARTESIAN_POINT ('', (-14.48596780504, -14.48596780504, 3.95359728672082));
#1110 = CARTESIAN_POINT ('', (-1.77401941049938E-15, -14.48596780504, 3.95359728672082));
#1120 = CARTESIAN_POINT ('', (14.48596780504, -14.48596780504, 3.95359728672082));
#1130 = CARTESIAN_POINT ('', (14.48596780504, -2.66102911574907E-15, 3.95359728672082));
#1140 = CARTESIAN_POINT ('', (14.48596780504, 14.48596780504, 3.95359728672082));
#1150 = CARTESIAN_POINT ('', (0., 14.48596780504, 3.95359728672082));
#1160 = CARTESIAN_POINT ('', (0., 13.3568724334638, 3.34138796252711));
#1170 = CARTESIAN_POINT ('', (-13.3568724334638, 13.3568724334638, 3.34138796252711));
#1180 = CARTESIAN_POINT ('', (-13.3568724334638, 8.17872553613049E-16, 3.34138796252711));
#1190 = CARTESIAN_POINT ('', (-13.3568724334638, -13.3568724334638, 3.34138796252711));
#1200 = CARTESIAN_POINT ('', (-1.6357451072261E-15, -13.3568724334638, 3.34138796252711));
#1210 = CARTESIAN_POINT ('', (13.3568724334638, -13.3568724334638, 3.34138796252711));
#1220 = CARTESIAN_POINT ('', (13.3568724334638, -2.45361766083915E-15, 3.34138796252711));
#1230 = CARTESIAN_POINT ('', (13.3568724334638, 13.3568724334638, 3.34138796252711));
#1240 = CARTESIAN_POINT ('', (0., 13.3568724334638, 3.34138796252711));
#1250 = CARTESIAN_POINT ('', (0., 11.587966621325, 2.50063802349186));
#1260 = CARTESIAN_POINT ('', (-11.587966621325, 11.587966621325, 2.50063802349186));
#1270 = CARTESIAN_POINT ('', (-11.587966621325, 7.095583115716E-16, 2.50063802349186));
#1280 = CARTESIAN_POINT ('', (-11.587966621325, -11.587966621325, 2.50063802349186));
#1290 = CARTESIAN_POINT ('', (-1.4191166231432E-15, -11.587966621325, 2.50063802349186));
#1300 = CARTESIAN_POINT ('', (11.587966621325, -11.587966621325, 2.50063802349186));
#1310 = CARTESIAN_POINT ('', (11.587966621325, -2.1286749347148E-15, 2.50063802349186));
#1320 = CARTESIAN_POINT ('', (11.587966621325, 11.587966621325, 2.50063802349186));
#1330 = CARTESIAN_POINT ('', (0., 11.587966621325, 2.50063802349186));
#1340 = CARTESIAN_POINT ('', (0., 9.70965356906671, 1.74494181876546));
#1350 = CARTESIAN_POINT ('', (-9.70965356906671, 9.70965356906671, 1.74494181876546));
#1360 = CARTESIAN_POINT ('', (-9.70965356906671, 5.94544808209361E-16, 1.74494181876546));
#1370 = CARTESIAN_POINT ('', (-9.70965356906671, -9.70965356906671, 1.74494181876546));
#1380 = CARTESIAN_POINT ('', (-1.18908961641872E-15, -9.70965356906671, 1.74494181876546));
#1390 = CARTESIAN_POINT ('', (9.70965356906671, -9.70965356906672, 1.74494181876546));
#1400 = CARTESIAN_POINT ('', (9.70965356906671, -1.78363442462808E-15, 1.74494181876546));
#1410 = CARTESIAN_POINT ('', (9.70965356906672, 9.70965356906671, 1.74494181876546));
#1420 = CARTESIAN_POINT ('', (0., 9.70965356906671, 1.74494181876546));
#1430 = CARTESIAN_POINT ('', (0., 7.83090457626497, 1.12495213098631));
#1440 = CARTESIAN_POINT ('', (-7.83090457626497, 7.83090457626497, 1.12495213098631));
#1450 = CARTESIAN_POINT ('', (-7.83090457626497, 4.79504611187563E-16, 1.12495213098631));
#1460 = CARTESIAN_POINT ('', (-7.83090457626497, -7.83090457626496, 1.12495213098631));
#1470 = CARTESIAN_POINT ('', (-9.59009222375125E-16, -7.83090457626497, 1.12495213098631));
#1480 = CARTESIAN_POINT ('', (7.83090457626496, -7.83090457626497, 1.12495213098631));
#1490 = CARTESIAN_POINT ('', (7.83090457626497, -1.43851383356269E-15, 1.12495213098631));
#1500 = CARTESIAN_POINT ('', (7.83090457626497, 7.83090457626496, 1.12495213098631));
#1510 = CARTESIAN_POINT ('', (0., 7.83090457626497, 1.12495213098631));
#1520 = CARTESIAN_POINT ('', (0., 5.95181091504647, 0.63946033108604));
#1530 = CARTESIAN_POINT ('', (-5.95181091504647, 5.95181091504647, 0.63946033108604));
#1540 = CARTESIAN_POINT ('', (-5.95181091504647, 3.64443309312097E-16, 0.63946033108604));
#1550 = CARTESIAN_POINT ('', (-5.95181091504647, -5.95181091504647, 0.63946033108604));
#1560 = CARTESIAN_POINT ('', (-7.28886618624194E-16, -5.95181091504647, 0.63946033108604));
#1570 = CARTESIAN_POINT ('', (5.95181091504647, -5.95181091504647, 0.63946033108604));
#1580 = CARTESIAN_POINT ('', (5.95181091504647, -1.09332992793629E-15, 0.63946033108604));
#1590 = CARTESIAN_POINT ('', (5.95181091504647, 5.95181091504647, 0.63946033108604));
#1600 = CARTESIAN_POINT ('', (0., 5.95181091504647, 0.63946033108604));
#1610 = CARTESIAN_POINT ('', (0., 4.48453828865383, 0.364550218634885));
#1620 = CARTESIAN_POINT ('', (-4.48453828865383, 4.48453828865383, 0.364550218634885));
#1630 = CARTESIAN_POINT ('', (-4.48453828865383, 2.74598773042683E-16, 0.364550218634885));
#1640 = CARTESIAN_POINT ('', (-4.48453828865383, -4.48453828865383, 0.364550218634885));
#1650 = CARTESIAN_POINT ('', (-5.49197546085366E-16, -4.48453828865383, 0.364550218634885));
#1660 = CARTESIAN_POINT ('', (4.48453828865383, -4.48453828865383, 0.364550218634885));
#1670 = CARTESIAN_POINT ('', (4.48453828865383, -8.23796319128049E-16, 0.364550218634885));
#1680 = CARTESIAN_POINT ('', (4.48453828865383, 4.48453828865383, 0.364550218634885));
#1690 = CARTESIAN_POINT ('', (0., 4.48453828865383, 0.364550218634885));
#1700 = CARTESIAN_POINT ('', (0., 3.23127824217656, 0.189023453224119));
#1710 = CARTESIAN_POINT ('', (-3.23127824217656, 3.23127824217656, 0.189023453224119));
#1720 = CARTESIAN_POINT ('', (-3.23127824217656, 1.97858727821801E-16, 0.189023453224119));
#1730 = CARTESIAN_POINT ('', (-3.23127824217656, -3.23127824217656, 0.189023453224119));
#1740 = CARTESIAN_POINT ('', (-3.95717455643601E-16, -3.23127824217656, 0.189023453224119));
#1750 = CARTESIAN_POINT ('', (3.23127824217656, -3.23127824217656, 0.189023453224119));
#1760 = CARTESIAN_POINT ('', (3.23127824217656, -5.93576183465402E-16, 0.189023453224119));
#1770 = CARTESIAN_POINT ('', (3.23127824217656, 3.23127824217656, 0.189023453224119));
#1780 = CARTESIAN_POINT ('', (0., 3.23127824217656, 0.189023453224119));
#1790 = CARTESIAN_POINT ('', (0., 1.87903789811159, 0.0470025668068557));
#1800 = CARTESIAN_POINT ('', (-1.87903789811159, 1.87903789811159, 0.0470025668068557));
#1810 = CARTESIAN_POINT ('', (-1.87903789811159, 1.15057887369947E-16, 0.0470025668068557));
#1820 = CARTESIAN_POINT ('', (-1.87903789811159, -1.87903789811159, 0.0470025668068557));
#1830 = CARTESIAN_POINT ('', (-2.30115774739893E-16, -1.87903789811159, 0.0470025668068557));
#1840 = CARTESIAN_POINT ('', (1.87903789811159, -1.87903789811159, 0.0470025668068557));
#1850 = CARTESIAN_POINT ('', (1.87903789811159, -3.4517366210984E-16, 0.0470025668068557));
#1860 = CARTESIAN_POINT ('', (1.87903789811159, 1.87903789811159, 0.0470025668068557));
#1870 = CARTESIAN_POINT ('', (0., 1.87903789811159, 0.0470025668068557));
#1880 = CARTESIAN_POINT ('', (0., 0.729988987520033, 0.));
#1890 = CARTESIAN_POINT ('', (-0.729988987520033, 0.729988987520033, 0.));
#1900 = CARTESIAN_POINT ('', (-0.729988987520033, 4.46989338489613E-17, 0.));
#1910 = CARTESIAN_POINT ('', (-0.729988987520033, -0.729988987520033, 0.));
#1920 = CARTESIAN_POINT ('', (-8.93978676979225E-17, -0.729988987520033, 0.));
#1930 = CARTESIAN_POINT ('', (0.729988987520033, -0.729988987520033, 0.));
#1940 = CARTESIAN_POINT ('', (0.729988987520033, -1.34096801546884E-16, 0.));
#1950 = CARTESIAN_POINT ('', (0.729988987520033, 0.729988987520033, 0.));
#1960 = CARTESIAN_POINT ('', (0., 0.729988987520033, 0.));
#1970 = CARTESIAN_POINT ('', (0., 0., 0.));
#1980 = CARTESIAN_POINT ('', (0., 0., 0.));
#1990 = CARTESIAN_POINT ('', (0., 0., 0.));
#2000 = CARTESIAN_POINT ('', (0., 0., 0.));
#2010 = CARTESIAN_POINT ('', (0., 0., 0.));
#2020 = CARTESIAN_POINT ('', (0., 0., 0.));
#2030 = CARTESIAN_POINT ('', (0., 0., 0.));
#2040 = CARTESIAN_POINT ('', (0., 0., 0.));
#2050 = CARTESIAN_POINT ('', (0., 0., 0.));
#2060 = (
   BOUNDED_SURFACE ()
   B_SPLINE_SURFACE (3, 2, ((#980, #990, #1000, #1010, #1020, #1030, #1040, #1050, #1060), (#1070, #1080, #1090, #1100, #1110, #1120, #1130, #1140, #1150), (#1160, #1170, #1180, #1190, #1200, #1210, #1220, #1230, #1240), (#1250, #1260, #1270, #1280, #1290, #1300, #1310, #1320, #1330), (#1340, #1350, #1360, #1370, #1380, #1390, #1400, #1410, #1420), (#1430, #1440, #1450, #1460, #1470, #1480, #1490, #1500, #1510), (#1520, #1530, #1540, #1550, #1560, #1570, #1580, #1590, #1600), (#1610, #1620, #1630, #1640, #1650, #1660, #1670, #1680, #1690), (#1700, #1710, #1720, #1730, #1740, #1750, #1760, #1770, #1780), (#1790, #1800, #1810, #1820, #1830, #1840, #1850, #1860, #1870), (#1880, #1890, #1900, #1910, #1920, #1930, #1940, #1950, #1960), (#1970, #1980, #1990, #2000, #2010, #2020, #2030, #2040, #2050)), .UNSPECIFIED., .F., .T., .U.)
   B_SPLINE_SURFACE_WITH_KNOTS ((4, 1, 1, 1, 1, 1, 1, 1, 1, 4), (3, 2, 2, 2, 3), (0., 0.112652333216001, 0.244266025725096, 0.372410509090877, 0.497612389537197, 0.620422056456234, 0.741404256156599, 0.781424225089719, 0.861132099660441, 1.), (0., 90., 180., 270., 360.), .UNSPECIFIED.)
   SURFACE ()
   GEOMETRIC_REPRESENTATION_ITEM ()
   RATIONAL_B_SPLINE_SURFACE (((1., 0.707106781186548, 1., 0.707106781186548, 1., 0.707106781186548, 1., 0.707106781186548, 1.), (1., 0.707106781186548, 1., 0.707106781186548, 1., 0.707106781186548, 1., 0.707106781186548, 1.), (1., 0.707106781186548, 1., 0.707106781186548, 1., 0.707106781186548, 1., 0.707106781186548, 1.), (1., 0.707106781186548, 1., 0.707106781186548, 1., 0.707106781186548, 1., 0.707106781186548, 1.), (1., 0.707106781186548, 1., 0.707106781186548, 1., 0.707106781186548, 1., 0.707106781186548, 1.), (1., 0.707106781186548, 1., 0.707106781186548, 1., 0.707106781186548, 1., 0.707106781186548, 1.), (1., 0.707106781186548, 1., 0.707106781186548, 1., 0.707106781186548, 1., 0.707106781186548, 1.), (1., 0.707106781186548, 1., 0.707106781186548, 1., 0.707106781186548, 1., 0.707106781186548, 1.), (1., 0.707106781186548, 1., 0.707106781186548, 1., 0.707106781186548, 1., 0.707106781186548, 1.), (1., 0.707106781186548, 1., 0.707106781186548, 1., 0.707106781186548, 1., 0.707106781186548, 1.), (1., 0.707106781186548, 1., 0.707106781186548, 1., 0.707106781186548, 1., 0.707106781186548, 1.), (1., 0.707106781186548, 1., 0.707106781186548, 1., 0.707106781186548, 1., 0.707106781186548, 1.)))
   REPRESENTATION_ITEM ('')
);
#2070 = ADVANCED_FACE ('', (#970), #2060, .T.);
#2080 = ORIENTED_EDGE ('', *, *, #340, .T.);
#2090 = ORIENTED_EDGE ('', *, *, #640, .T.);
#2100 = EDGE_LOOP ('', (#2080, #2090));
#2110 = FACE_OUTER_BOUND ('', #2100, .T.);
#2120 = CARTESIAN_POINT ('', (-1.4210854715202E-14, 2.8421709430404E-14, -102.954999999994));
#2130 = DIRECTION ('', (-1., -2.49098418308976E-16, 2.15271729483327E-16));
#2140 = DIRECTION ('', (2.49098418308976E-16, -1., 4.98196836617951E-16));
#2150 = AXIS2_PLACEMENT_3D ('', #2120, #2130, #2140);
#2160 = SPHERICAL_SURFACE ('', #2150, 116.654999999994);
#2170 = ADVANCED_FACE ('', (#2110), #2160, .T.);
#2180 = CLOSED_SHELL ('', (#480, #740, #2070, #2170));
#2190 = MANIFOLD_SOLID_BREP ('', #2180);
#2200 = (
   LENGTH_UNIT ()
   NAMED_UNIT (*)
   SI_UNIT (.MILLI., .METRE.)
);
#2210 = (
   NAMED_UNIT (*)
   SI_UNIT ($, .STERADIAN.)
   SOLID_ANGLE_UNIT ()
);
#2220 = (
   NAMED_UNIT (*)
   SI_UNIT ($, .RADIAN.)
   PLANE_ANGLE_UNIT ()
);
#2230 = UNCERTAINTY_MEASURE_WITH_UNIT (LENGTH_MEASURE(0.0001), #2200, 'DISTANCE_ACCURACY_VALUE', '');
#2240 = (
   GEOMETRIC_REPRESENTATION_CONTEXT (3)
   GLOBAL_UNCERTAINTY_ASSIGNED_CONTEXT ((#2230))
   GLOBAL_UNIT_ASSIGNED_CONTEXT ((#2200, #2210, #2220))
   REPRESENTATION_CONTEXT ('', '3D')
);
#2250 = ADVANCED_BREP_SHAPE_REPRESENTATION ('', (#2190), #2240);
#2260 = APPLICATION_CONTEXT ('configuration controlled 3D designs of mechanical parts and assemblies');
#2270 = APPLICATION_PROTOCOL_DEFINITION ('International Standard', 'config_control_design', 1997, #2260);
#2280 = MECHANICAL_CONTEXT ('', #2260, 'mechanical');
#2290 = PRODUCT ('product-name', '', '', (#2280));
#2300 = PERSON_AND_ORGANIZATION_ROLE ('design_owner');
#2310 = PERSON ('', '', $, $, $, $);
#2320 = ORGANIZATION ($, '', '');
#2330 = PERSON_AND_ORGANIZATION (#2310, #2320);
#2340 = CC_DESIGN_PERSON_AND_ORGANIZATION_ASSIGNMENT (#2330, #2300, (#2290));
#2350 = PRODUCT_RELATED_PRODUCT_CATEGORY ('detail', $, (#2290));
#2360 = PRODUCT_DEFINITION_FORMATION_WITH_SPECIFIED_SOURCE ('', '', #2290, .NOT_KNOWN.);
#2370 = APPROVAL_STATUS ('approved');
#2380 = APPROVAL (#2370, '');
#2390 = CALENDAR_DATE (2013, 13, 3);
#2400 = COORDINATED_UNIVERSAL_TIME_OFFSET (0, $, .AHEAD.);
#2410 = LOCAL_TIME (12, 8, 56., #2400);
#2420 = DATE_AND_TIME (#2390, #2410);
#2430 = APPROVAL_DATE_TIME (#2420, #2380);
#2440 = APPROVAL_ROLE ('');
#2450 = PERSON ('', '', $, $, $, $);
#2460 = ORGANIZATION ($, '', '');
#2470 = PERSON_AND_ORGANIZATION (#2450, #2460);
#2480 = APPROVAL_PERSON_ORGANIZATION (#2470, #2380, #2440);
#2490 = CC_DESIGN_APPROVAL (#2380, (#2360));
#2500 = PERSON_AND_ORGANIZATION_ROLE ('creator');
#2510 = PERSON ('', '', $, $, $, $);
#2520 = ORGANIZATION ($, '', '');
#2530 = PERSON_AND_ORGANIZATION (#2510, #2520);
#2540 = CC_DESIGN_PERSON_AND_ORGANIZATION_ASSIGNMENT (#2530, #2500, (#2360));
#2550 = PERSON_AND_ORGANIZATION_ROLE ('part_supplier');
#2560 = PERSON ('', '', $, $, $, $);
#2570 = ORGANIZATION ($, '', '');
#2580 = PERSON_AND_ORGANIZATION (#2560, #2570);
#2590 = CC_DESIGN_PERSON_AND_ORGANIZATION_ASSIGNMENT (#2580, #2550, (#2360));
#2600 = SECURITY_CLASSIFICATION_LEVEL ('unclassified');
#2610 = SECURITY_CLASSIFICATION ('', '', #2600);
#2620 = APPROVAL_STATUS ('approved');
#2630 = APPROVAL (#2620, '');
#2640 = CALENDAR_DATE (2013, 13, 3);
#2650 = COORDINATED_UNIVERSAL_TIME_OFFSET (0, $, .AHEAD.);
#2660 = LOCAL_TIME (12, 8, 56., #2650);
#2670 = DATE_AND_TIME (#2640, #2660);
#2680 = APPROVAL_DATE_TIME (#2670, #2630);
#2690 = APPROVAL_ROLE ('');
#2700 = PERSON ('', '', $, $, $, $);
#2710 = ORGANIZATION ($, '', '');
#2720 = PERSON_AND_ORGANIZATION (#2700, #2710);
#2730 = APPROVAL_PERSON_ORGANIZATION (#2720, #2630, #2690);
#2740 = CC_DESIGN_APPROVAL (#2630, (#2610));
#2750 = DATE_TIME_ROLE ('classification_date');
#2760 = CALENDAR_DATE (2013, 13, 3);
#2770 = COORDINATED_UNIVERSAL_TIME_OFFSET (0, $, .AHEAD.);
#2780 = LOCAL_TIME (12, 8, 56., #2770);
#2790 = DATE_AND_TIME (#2760, #2780);
#2800 = CC_DESIGN_DATE_AND_TIME_ASSIGNMENT (#2790, #2750, (#2610));
#2810 = PERSON_AND_ORGANIZATION_ROLE ('classification_officer');
#2820 = PERSON ('', '', $, $, $, $);
#2830 = ORGANIZATION ($, '', '');
#2840 = PERSON_AND_ORGANIZATION (#2820, #2830);
#2850 = CC_DESIGN_PERSON_AND_ORGANIZATION_ASSIGNMENT (#2840, #2810, (#2610));
#2860 = CC_DESIGN_SECURITY_CLASSIFICATION (#2610, (#2360));
#2870 = DESIGN_CONTEXT ('', #2260, 'design');
#2880 = PRODUCT_DEFINITION ('', '', #2360, #2870);
#2890 = APPROVAL_STATUS ('approved');
#2900 = APPROVAL (#2890, '');
#2910 = CALENDAR_DATE (2013, 13, 3);
#2920 = COORDINATED_UNIVERSAL_TIME_OFFSET (0, $, .AHEAD.);
#2930 = LOCAL_TIME (12, 8, 56., #2920);
#2940 = DATE_AND_TIME (#2910, #2930);
#2950 = APPROVAL_DATE_TIME (#2940, #2900);
#2960 = APPROVAL_ROLE ('');
#2970 = PERSON ('', '', $, $, $, $);
#2980 = ORGANIZATION ($, '', '');
#2990 = PERSON_AND_ORGANIZATION (#2970, #2980);
#3000 = APPROVAL_PERSON_ORGANIZATION (#2990, #2900, #2960);
#3010 = CC_DESIGN_APPROVAL (#2900, (#2880));
#3020 = DATE_TIME_ROLE ('creation_date');
#3030 = CALENDAR_DATE (2013, 13, 3);
#3040 = COORDINATED_UNIVERSAL_TIME_OFFSET (0, $, .AHEAD.);
#3050 = LOCAL_TIME (12, 8, 56., #3040);
#3060 = DATE_AND_TIME (#3030, #3050);
#3070 = CC_DESIGN_DATE_AND_TIME_ASSIGNMENT (#3060, #3020, (#2880));
#3080 = PERSON_AND_ORGANIZATION_ROLE ('creator');
#3090 = PERSON ('', '', $, $, $, $);
#3100 = ORGANIZATION ($, '', '');
#3110 = PERSON_AND_ORGANIZATION (#3090, #3100);
#3120 = CC_DESIGN_PERSON_AND_ORGANIZATION_ASSIGNMENT (#3110, #3080, (#2880));
#3130 = PRODUCT_DEFINITION_SHAPE ('', '', #2880);
#3140 = SHAPE_DEFINITION_REPRESENTATION (#3130, #2250);
ENDSEC;
END-ISO-10303-21;
